PrimaNota.ru - самый крупный в мире бесплатный архив песенных текстов, аккордов, табулатур и нот


Jack Thammarat - Mr Frontman - таба, видео

Регистрация Запомнить меня
Войти через:  Facebook Google Twitter Vk Yandex Mail.ru

Jack Thammarat - Mr Frontman - таба, видео

Печатать
Просмотров: 272
Уроки эстрадного вокала в Санкт-Петербурге
-------------------------------------------------------------------------------
                             Mr. Frontman - Jack Thammarat
-------------------------------------------------------------------------------
Tabbed by: Martin Minnie
E-mail: martinminnie79@gmail.com

Hey UG community, this is my first tab, so not too familiar with the layout etc, or this form of notation on
this site, soooo, go easy on me :P
Also, if anyone has any requests of tabs they want, let me know, I'll try and help where at all possible :)

Please listen to the song for the correct timing.

Any corrections or mistakes anyone picks up on, please let me know, and I'll update the tab.

Enjoy! :)

P.S. ~ I don't use official tabs, everything I tab out is by ear, and slowing video down.  Even official tabs
can be way off the mark at times.

Tuning: Standard E,B,G,D,A,E.

  INTRO ~ CLEAN TONE
------------------------------------------------------------------|------------------------------------------|
------------------------------------------------------------------|------------------------------------------|
--------4-----------4-----------4-------4-----------4---------2h4-|-------4-----------4-----------4----------|
------4-----4-----4-----4-----4-------4-----4-----2-----2-2h4-----|-----4-----4-----4-----4-----4------------|
--0h2---------0h2---------0h2-----------------0-------------------|-0h2---------0h2---------0h2--------------|
----------------------------------3-------------------------------|------------------------------------------|
                             OVERDRIVE
--------------------------|-----------------------------------3--3-------------------------------------------|
--------------------------|-----------------------------------3--3-----2--2----------------------------------|
-------------------4------|-----4-----------4-----------4-----0--0-----2--2---------2h4-----4----------------|
-----------------4-----4--|-----4-----------4-----------4-----0--0-----2--2-----2h4---------4----------------|
--------------------------|-----0h2-2-2-2-2-0h2-2-2-2-2-0-2-2-2--2-----0--0-0-0-------------0h2-2-2-2-2------|
--0--0-0-0-3-2------------|-\---------------------------------3--3-3-3---------------------------------------|
                                    . . . .     . . . .   . .      . .      . .
-----------------------3--3---------------|------------------------------------------------------------------|
-----------------------3--3-----2--2------|------------------------------------------------------------------|
--4-----------4--------0--0-----2--2------|--8--8-8-8-8--8-8-8-8-8-8-8--8-\-9-9-9-9-9-9-\-11-11-11-11-11-----|
--4-----------4--------0--0-----2--2------|--x--x-x-x-x--x-x-x-x-x-x-x--x-\-x-x-x-x-x-x-\-x--x--x--x--x------|
--0h2-2-2-2-2-0h2-2-2--2--2-----0--0-0-0--|--6--6-6-6-6--6-6-6-6-6-6-6--6-\-7-7-7-7-7-7-\-9--9--9--9--9------|
-----------------------3--3-3-3-----------|------------------------------------------------------------------|
      . . . .     . .       . .      . .
-------------------------------------------------------------------------------------------------------------|
-------------------------------------------------------------------------------------------------------------|
--9-9-9\-11-8-8-8-8-8-/-4-4-4-4-4-4-4-4-\-16-16-16-16-16-/-11-11-11-11-\-12-12-11-11-9-9-9-\-11-12-8-------/-|
--x-x-x\-x--x-x-x-x-x-/-x-x-x-x-x-x-x-x-\--x--x--x--x--x-/-x--x--x--x--\--x--x-x--x--x-x-x-\-x---x-x-------/-|
--7-7-7\-9--6-6-6-6-6-/-2-2-2-2-2-2-2-2-\-14-14-14-14-14-/-9--9--9--9--\-10-10-9--9--7-7-7-\-9--10-6-------/-|
-------------------------------------------------------------------------------------------------------------|
                                                                                                     __ring__ 
-------------------------------------------------------------------------------------------------------------|
-------------------------------------------------------------10-----------10\12~---/7*-7~---\12*-12~--*7 7~--|
---------------------------------------------------7h9-9\11~----11/9~-8-9------------------------------------|
-------------------------7~----------7\9~--x-x-7h9-----------------------------------------------------------|
---5-7\9~/7~-6~----5-7\9----9/7~-6-7-------------------------------------------------------------------------|
-7---------------7-------------------------------------------------------------------------------------------|
                                                                                      *notes not picked
------------------------5--------------------------------------------------------------5---------------------|
--5-7-5\7b-5*-5~-3h5\7~---7/5~-4-4~---------------------10-----------10\12~-12+--8b(10)--8-5--------7--------|
---------------------------------4~-----------7h9-9\11~----11/9~-8-9-------------------------9b(11)---7-9----|
--------------------------------------x-x-7h9-------------------------------------------------------------9--|
-------------------------------------------------------------------------------------------------------------|
-------------------------------------------------------------------------------------------------------------|
          1/4 bend                 slight vibrato
--------------------9-----12----------------------------10h14--14p12p10--9-----------------------------------|
------7----------------------10----------------------12--------------------10-----------------------10h12h14-|
--7h9---7-----7/6\7---7\9-------9\11~----------11h14--------------------------11------------11h12h14---------|
----------9~--------------------------------12-----------------------------------12-11h12h14-----------------|
--------------------------------------10-14------------------------------------------------------------------|
-------------------------------------------------------------------------------------------------------------|

--10h12h14\17~p16p15p14----14--------------------------------------------------------------------------------|
------------------------17----17-16-15-14-15-16-17-----------------------------------------------------------|
---------------------------------------------------14b16-14~--------14-16-14h16~--/13p11---------------------|
--------------------------------------------------------------11\16----------------------13p11/9-------------|
-------------------------------------------------------------------------------------------------11p9h11-----|
-------------------------------------------------------------------------------------------------------------|
                                                           wide vibrato        wide vibr.

----------------------------------------------11-11-------14-11----------------------------------------------|
-----------------------10-10------12-12-10----------12----------12-------14br(16)p12----14----12h14-12~------|
-------8h11-9h11~-9h11-------11-9----------11----------13----------13-11-------------13----13------------/---|
--9h11---------------------------------------------------------------------------------------------------/---|
---------------------------------------------------------------------------------------------------------/---|
-------------------------------------------------------------------------------------------------------------|

----------------------------------------------------------------------------------------------------------19-|
-------------------7-\9-9/7-------------------------7-----------------------------------16-------17-16h17----|
-8-9-9/11-11~/4-4~----------4-4~-6\8-8b(9)8/6p4-6\8---8/6-4---8h9-9\11-11~\16-16~----------16-18-------------|
----------------------------------------------------------4-----------------------16h18----------------------|
-------------------------------------------------------------------------------------------------------------|
-------------------------------------------------------------------------------------------------------------|

--------21-19p18---------------------------------------------------------------------------------------------|
--17h19----------19-------19-17-------17b(19)~p15-17\19/17p15-17p15-------15b(17)----------------------------|
--------------------18/16-------16\14-------------------------------16-14--------16~(18)----11h13------------|
-------------------------------------------------------------------------------------------------------------|
-------------------------------------------------------------------------------------------------------------|
-------------------------------------------------------------------------------------------------------------|
                                        wide vibr.                                  wide vibr.        
---------------------------------------------------7--------7-------------7----------------------------------|
--12-14br(16)p12----12~--15br(17)/14b(16)-12~---10---10b(11)--10-7----------10-7---------------------10---12/|
-----------------13------------------------------------------------9b(11)--------9br(11)p7---9---7\9----9-11/|
-------------------------------------------------------------------------------------------9---9-------------|
-------------------------------------------------------------------------------------------------------------|
-------------------------------------------------------------------------------------------------------------|

--12--12-12-----11------9------9h11------9h11-----9-11-12-11--9----------------------------------------------|
--12--12-12--12-12--12-12--12-12------12------12-12-12-12-12-12-12-10~------7~-9p0-9b(10)~-7-9~-7h9p7p0-7~---|
-------------------------------------------------------------------------\9----------------------------------|
-------------------------------------------------------------------------------------------------------------|
-------------------------------------------------------------------------------------------------------------|
-------------------------------------------------------------------------------------------------------------|

------------------0-----11-----------------------------------------------------------------------------------|
--5h7p5p0-4p0-5\7---7~\-12-12-12-12--------------------------------12--------15br(17)----14---------15br(19)-|
---------------------------14-13-11-11-11-----------11-13----11-13----11-\13----------13----13-16------------|
------------------------------------14----13~-12h13-------13-------------------------------------------------|
-------------------------------------------------------------------------------------------------------------|
-------------------------------------------------------------------------------------------------------------|

--12-14---------12-----------------12----------------12h14h17p14p12----12----------------12------------------|
--------15b(17)----12-15-----12h15----15p12----12h15----------------15----15p12----12h15----15p12----12h15---|
--------------------------14----------------14----------------------------------14----------------14---------|
-------------------------------------------------------------------------------------------------------------|
-------------------------------------------------------------------------------------------------------------|
-------------------------------------------------------------------------------------------------------------|

--12h14h17p14p12----12---------------------------------------------------------------------------------------|
-----------------15----15p12----12h14h15p14p12-14p12p0-10h12p10p0-9h10p9p0-7h9p7p0-5h7p5p0-4h5p4p0-4h5h7-----|
-----------------------------14------------------------------------------------------------------------------|
------------------------------------------------------------------------------------------------------------|
-------------------------------------------------------------------------------------------------------------|
-------------------------------------------------------------------------------------------------------------|

--------------------------------------------------------------------------------------7-----7-----7----------|
--4~-5-5/7~-------------------------7-------------------------4-x-4-x-4-----------------7h9---7h9---7--------|
------------\4~------4br(5)-6p4-6\8---8/6p4-6\8/6p4-6h8-----4-4-x-4-x-4-x-x-x--9b(11)------------------------|
-----------------4-6------------------------------------6-8-4-4-x-4-x-4-x-x-x--------------------------------|
-------------------------------------------------------------------------------------------------------------|
-------------------------------------------------------------------------------------------------------------|
                                                        . .
--9br(11)p7---7------------------9h12-11~-12-----------------------------------------------------------------|
------------9---------------9h12-------------14br(16)p12~-x-x-12----12----12---------------7~-----------7--7-|
-----------------------9h14-------------------------------x-x-11h13-11h13-11h13p11/9~-8~-9-------8p9----9--9-|
------------------9h14-------------------------------------------------------------------------9--------9--9-|
-------------------------------------------------------------------------------------------------------------|
-------------------------------------------------------------------------------------------------------------|

-------------------------------------------------------------------------------------------------------------|
--x-x-11--11-11-11-11-11-11-11-11-11-12-x-x-12\14-12-12/--------------------7\9~-7~--------------------------|
--x-x-11--11-11-11-11-11-11-11-11-11-11-x-x-11\13-11-11/--8-9 9\11-11~-4-4~---------4-4~-6\8-8-8br(9)-8/6p4--|
-------------------------------------------------------------------------------------------------------------|
-------------------------------------------------------------------------------------------------------------|
-------------------------------------------------------------------------------------------------------------|

------------------------------------------------------------19-------21-19p18--------------------------------|
-----7------------------------------------16-------17-16h17----17h19----------19-------19-17-------17br(19)--|
-6\8---8/6-4---8-9-9\11-11~-\16-16~----------16-18-------------------------------18/16-------16/14-----------|
-----------4------------------------16h18--------------------------------------------------------------------|
-------------------------------------------------------------------------------------------------------------|
-------------------------------------------------------------------------------------------------------------|

-----------17-17---------------------------------------------------------------------------------------------|
--15-17\19-------19\17-15-17\19/17p15-------15b(17)------16-17-19-17br(19)--------19brbr(21)p17-19~----------|
--------------------------------------16p14--------16~---------------------16-16~-------------------16-16~---|
-------------------------------------------------------------------------------------------------------------|
-------------------------------------------------------------------------------------------------------------|
-------------------------------------------------------------------------------------------------------------|

-------------------------------------------------------------------------------------------------------------|
----------16-17-19---------------------16--------------------------------------------------------------16-17-|
--18b(20)----------18b(20)16-18--16-18----16-------------16--------------------------------------16h18-------|
---------------------------------------------18----16h18-----------------------------------16h18-------------|
------------------------------------------------18----------18/16p14-16\18brbr(20)~--14h18-------------------|
-------------------------------------------------------------------------------------------------------------|

----------------19-19~--------------19br(21)19br(22)19brbr(21)~-17-19----17----------------------14h17p14----|
--19-17brb(19)~--------19brbr(21)p0-----------------------------------19----17-19-15-17----15h17-------------|
----------------------------------------------------------------------------------------16-------------------|
-------------------------------------------------------------------------------------------------------------|
-------------------------------------------------------------------------------------------------------------|
-------------------------------------------------------------------------------------------------------------|
                                                                                                 |____1_____|

-----14h17p14----14h17p14----14h17p14----14h19p14----14h19p14----14h19p14----14h19p14----14h19p14----14h19p14|
--17---------17-----------17----------17----------17----------17----------17----------17----------17---------|
-------------------------------------------------------------------------------------------------------------|
-------------------------------------------------------------------------------------------------------------|
-------------------------------------------------------------------------------------------------------------|
-------------------------------------------------------------------------------------------------------------|
   |____2____| |____3____| |____4____|  |____1____| |____2____| |____3____| |____4____| |____5____| |____6____| 

----14h19p14----14h19p14----14h17p14----14h17p14----14h19p14----14h17p14----14h19p14----14h17p14----14h19p17-|
-17----------17----------17----------17----------17----------17----------17----------17----------17----------|
-------------------------------------------------------------------------------------------------------------|
-------------------------------------------------------------------------------------------------------------|
-------------------------------------------------------------------------------------------------------------|
-------------------------------------------------------------------------------------------------------------|
   |____7____| |____8____| |____1____| |____2____| |__________1__________| |__________2___________| |_________3

-----14h17p14----14h19p14h19p14----14h19p14h19p14----14h19p14h19p14----14h19p14h19p14----14h19p14----14h19p14|
--17----------17----------------17----------------17----------------17----------------17----------17---------|
-------------------------------------------------------------------------------------------------------------|
-------------------------------------------------------------------------------------------------------------|
-------------------------------------------------------------------------------------------------------------|
-------------------------------------------------------------------------------------------------------------|
    __________| |_______1_______| |_______2_______| |_______3_______| |_______4_______| |____1_____| |____2____|

-----14-19p14----------14-19p14----------14-19p14----------14-19p14----------14-19p14----------14-19---------|
--17----------17----17----------17----17----------17----17----------17----17----------17----17---------------|
-----------------16----------------16----------------16----------------16----------------16------------------|
--------------------------------------------------------------------------------------------------------/----|
--------------------------------------------------------------------------------------------------------/----|
-------------------------------------------------------------------------------------------------------------|

----------------------------------------------------------------------------------------10-14p10-------------|
-------------------------------------------------------------------------------------12----------12-------12-|
-------------------------7-9-11-7-9----7-------------7-9-11\14p11-----------------11----------------11-14----|
------------------7-9-11------------11---11-9-7-9-11--------------12-----------12----------------------------|
-----------7-9-11----------------------------------------------------14~-12h14-------------------------------|
-2\-7-9-11---------------------------------------------------------------------------------------------------|

--10h14\17p16p15p14----14-------14---------------------------------------------------------------------------|
--------------------17----15h17----15brbr(17)-x-14h15p14-----------------------------------------------------|
----------------------------------------------x----------14-16br(18)-14-------------------------11-----------|
----------------------------------------------x-------------------------16/14-12----14----12-14----12\13-----|
---------------------------------------------------------------------------------14----14----------------14~-|
-------------------------------------------------------------------------------------------------------------|

----------11-12-14-11--------------------------------------------12h14p12----12-14-17p14p12----12-14-17p14p12|
-------12-------------12----12-14-14brbrbrbr(16)p12-15brbrbr(17)----------15----------------15---------------|
----11-------------------11----------------------------------------------------------------------------------|
--9-----------------------------------------------------------------------------------------------------------|
-------------------------------------------------------------------------------------------------------------|
-------------------------------------------------------------------------------------------------------------|

-----12-14-17p14p12----12-14-17p14p12----12-14-17p14p12----12-14-17p14p12----12-14-17p14p12-14p12----12------|
--15----------------15----------------15----------------15----------------15----------------------15----15p12|
-------------------------------------------------------------------------------------------------------------|
-------------------------------------------------------------------------------------------------------------|
-------------------------------------------------------------------------------------------------------------|
-------------------------------------------------------------------------------------------------------------|

-------------------------------------------------------------------------------------------------------------|
-----15----12------------------------------------------------------------------------------------------------|
--14----14----14p11----14p11----11---------------------------------------------------------------------------|
--------------------14-------14----14p12----14p12----12------------------------------------------------------|
-----------------------------------------14-------14----14p12----12-14-14-14-14-12-14br(16)--/---------------|
--------------------------------------------------------------14----------------------------/----------------|
                                                                     .  .  .  .

************************************
| .   palm mute
| /   slide up
| \   slide down
| h   hammer-on
| p   pull-off
| ~   vibrato
| +   harmonic
| x   Mute note
| b   Bend
| pb  Pre-bend
| br  Bend release
| pbr Pre-bend release
| brb Bend release bend

************************************
Добавлено: 08.08.2015
Другие материалы по этой песне:
  • Аккорды и текст

Страница создана 08.08.2015
http://primanota.ru/jack-thammarat/mr-frontman-chords.htm
Привет, Гость.
Предлагаем пройти революционный курс по гитаре.
Подарок от PrimaNota.Ru, забирай!