PrimaNota.ru - самый крупный в мире бесплатный архив песенных текстов, аккордов, табулатур и нот


Iron Maiden - Tears Of A Clown - бас-таба, видео

Регистрация Запомнить меня
Войти через:  Facebook Google Twitter Vk Yandex Mail.ru

Iron Maiden - Tears Of A Clown - бас-таба, видео

Печатать
Просмотров: 217
-------------------------------------------------------------------------------
                             Tears of a Clown - Iron Maiden
-------------------------------------------------------------------------------
Tabbed by: Dannegl

Tuning: Standard 


Intro:
G|-----------------------------------------------------------------|
D|-----------------------------------------------------------------|
A|-0---0-0-0---0-0-0---0-0-0---0-0-3---3-3-3---3-3-3---3-3-3---3-3-|
E|-----------------------------------------------------------------|

G|-----------------------------------------------------------------|
D|-----------------------------------------------------------------|
A|---------------------------------5---5-5-5---5-5-5---5-5-5---5-5-|
E|-1---1-1-1---1-1-1---1-1-1---1-1---------------------------------|

G|-----------------------------------------------------------------|
D|-----------------------------------------------------------------|
A|-0---0-0-0---0-0-0---0-0-0---0-0-3---3-3-3---3-3-3---3-3-3---3-3-|
E|-----------------------------------------------------------------|

G|-----------------------------------------------------------------|
D|-----------------------------------------------------------------|
A|---------------------------------5---5-5-5---5-5---3-----5-------|
E|-1---1-1-1---1-1-1---1-1-1---1-1---------------------------------|

Riff:
G|------------------------------------------------------|
D|------------------------------------------------------|
A|-0--0-3h5---------5---------5---------5-----------3h5-|
E|----------3---3-3---3---3-3---3---3-3---3---3--3h5----| x2

G|-------------------------------------------------------------------|
D|-------------------------------------------------------------------|
A|-0---0-0-0---0-0-0----0-0-0---0-0-0----0-0-0---0-0-0---0-0-0---0-0-|
E|-------------------------------------------------------------------|

Verse:
G|-------------------------------------------------------------------|
D|-------------------------------------------------------------------|
A|-0---0-0-0---0-0-0----0-0-0---0-0-0----0-0-0---0-0-0---0-0-0---0-0-|
E|-------------------------------------------------------------------|

G|-----------------------------------------------------------------|
D|-----------------------------------------------------------------|
A|---------------------------------3---3-3-3---3-3-5---5-5-5---5-5-|
E|-3---3-3-3---3-3-3---3-3-3---3-3---------------------------------| x2

Bridge:
G|-----------------------------------------------------------------|
D|-----------------------------------------------------------------|
A|---------------------------------0---0-0-0---0-0-0---0-0-0---0-0-|
E|-1---1-1-1---1-1-1---1-1-1---1-1---------------------------------|

G|-----------------------------------------------------------------|
D|-----------------------------------------------------------------|
A|---------------------------------5---5-5-5---5-5-5---5-5-5---5-5-|
E|-3---3-3-3---3-3-3---3-3-3---3-3---------------------------------| x2

Chorus:
G|------------------------------------------------------------------|
D|------------------------------------------------------------------|
A|-0-0-0-0-0-0-0-0-3-3-3-3-3-3-3-3----------------5-5-5-5-5-5--3--5-|
E|---------------------------------1-1-1-1-1-1-1-1------------------| x2 

Between chorus and verse:
G|-------------------------------------------------------------------|
D|-------------------------------------------------------------------|
A|-0---0-0-0---0-0-0----0-0-0---0-0-0----0-0-0---0-0-0---0-0-0---0-0-|
E|-------------------------------------------------------------------| 


Verse:
G|-------------------------------------------------------------------|
D|-------------------------------------------------------------------|
A|-0---0-0-0---0-0-0----0-0-0---0-0-0----0-0-0---0-0-0---0-0-0---0-0-|
E|-------------------------------------------------------------------|

G|-----------------------------------------------------------------|
D|-----------------------------------------------------------------|
A|---------------------------------3---3-3-3---3-3-5---5-5-5---5-5-|
E|-3---3-3-3---3-3-3---3-3-3---3-3---------------------------------| x2

Bridge:
G|-----------------------------------------------------------------|
D|-----------------------------------------------------------------|
A|---------------------------------0---0-0-0---0-0-0---0-0-0---0-0-|
E|-1---1-1-1---1-1-1---1-1-1---1-1---------------------------------|

G|-----------------------------------------------------------------|
D|-----------------------------------------------------------------|
A|---------------------------------5---5-5-5---5-5-5---5-5-5---5-5-|
E|-3---3-3-3---3-3-3---3-3-3---3-3---------------------------------| x2

Chorus:
G|------------------------------------------------------------------|
D|------------------------------------------------------------------|
A|-0-0-0-0-0-0-0-0-3-3-3-3-3-3-3-3----------------5-5-5-5-5-5--3--5-|
E|---------------------------------1-1-1-1-1-1-1-1------------------| x2

Riff:
G|------------------------------------------------------|
D|------------------------------------------------------|
A|-0--0-3h5---------5---------5---------5-----------3h5-|
E|----------3---3-3---3---3-3---3---3-3---3---3--3h5----| x4

Solo 1:
G|-----------------------------------------------------------------|
D|-----------------------------------------------------------------|
A|-5-5-5-5-5-5-5-5-1-1-1-1-1-1-1-1-3-3-3-3-3-3-3-3-0-0-0-0-0-0-0-0-|
E|-----------------------------------------------------------------| x4

Solo 2:
G|-----------------------------------------------------------------|
D|-----------------------------------------------------------------|
A|-------------------------------------------------0-0-0-0-0-0-0-0-|
E|-0-0-0-0-0-0-0-0-1-1-1-1-1-1-1-1-3-3-3-3-3-3-3-3-----------------| x2

Intermission: 
G|---------------------------|
D|---------------------------|
A|---------------------------|
E|-5-5-5-5----5-5-5-5----5-5-| x2

Chorus:
G|------------------------------------------------------------------|
D|------------------------------------------------------------------|
A|-0-0-0-0-0-0-0-0-3-3-3-3-3-3-3-3----------------5-5-5-5-5-5--3--5-|
E|---------------------------------1-1-1-1-1-1-1-1------------------| x4

Outro:
G|------------------------------------------------------|
D|------------------------------------------------------|
A|-0--0-3h5---------5---------5---------5-----------3h5-|
E|----------3---3-3---3---3-3---3---3-3---3---3--3h5----| 

G|------------------------------------------------------|
D|------------------------------------------------------|
A|-0--0-3h5---------5---------5---------5---------------|
E|----------3---3-3---3---3-3---3---3-3---3-------------| 


| /  slide up
| \  slide down
| h  hammer-on
| p  pull-off
| ~  vibrato
| +  harmonic
| x  Mute note
===============================================================================
Добавлено: 27.02.2016
Другие материалы по этой песне:
  • Аккорды и текст

Страница создана 27.02.2016
http://primanota.ru/iron-maiden/tears-of-a-clown-chords.htm
Привет, Гость.
Предлагаем пройти революционный курс по гитаре.
Подарок от PrimaNota.Ru, забирай!