PrimaNota.ru - самый крупный в мире бесплатный архив песенных текстов, аккордов, табулатур и нот


Iron Maiden - Empire Of The Clouds - таба, видео

Регистрация Запомнить меня
Войти через:  Facebook Google Twitter Vk Yandex Mail.ru

Iron Maiden - Empire Of The Clouds - таба, видео

Печатать
Просмотров: 241
Авторы музыки: Bruce Dickinson
Авторы текста: Bruce Dickinson
-------------------------------------------------------------------------------
                             Empire of the Clouds - Iron Maiden
-------------------------------------------------------------------------------
Tabbed by: Jack
E-mail: eggmobile123@gmail.com

Tuning: Standard

I have also made piano sheet music here: https://goo.gl/UlYqu1

Riff A:
e|---------------------------------------------------------------------------|
B|---------------------------------------------------------------------------|
G|-12-11-9----9~---9-12-11~-12-11-9----9~---------9~-12-11-9----9~---9-12-11~|
D|---------12---12------------------12---12-9-12-------------12---12---------|
A|---------------------------------------------------------------------------|
E|---------------------------------------------------------------------------|

e|---------------------------------------------------------------------------|
B|---------------------------------------------------------------------------|
G|-12-11-9~---9--------------x2----------------------------------------------|
D|---------12---12-9-12-12~--------------------------------------------------|
A|---------------------------------------------------------------------------|
E|---------------------------------------------------------------------------|

Riff B:
e|---------------------------------------------------------------------------|
B|---------------------------------------------------------------------------|
G|-9-9-9---9---9---9---9-9-9---9-9-9---9---9---9---9-9-9---5-5-5---5---5---5-|
D|---------------------------------------------------------------------------|
A|-7-7-7---7---7---7---7-7-7---7-7-7---7---7---7---7-7-7---3-3-3---3---3---3-|
E|---------------------------------------------------------------------------|
                        Rit..................................................
e|---------------------------------------------------------------------------|
B|---------------------------------------------------------------------------|
G|-5-5-5---------------------------------------------------------------------|
D|---------9-9-9---9---9---9---9-9-9---7-7-7---7---7---7---7-7-7---5-5-5---5-|
A|-3-3-3---------------------------------------------------------------------|
E|---------7-7-7---7---7---7---7-7-7---5-5-5---5---5---5---5-5-5---3-3-3---3-|
.................|
e|---------------------------------------------------------------------------|
B|---------------------------------------------------------------------------|
G|---------------------------------------------------------------------------|
D|--5---5---5-5-5------------------------------------------------------------|
A|---------------------------------------------------------------------------|
E|--3---3---3-3-3------------------------------------------------------------|

Riff C:
e|---------------------------------------------------------------------------|
B|---------------------------------------------------------------------------|
G|------------7~-------------------------------7-----------------------------|
D|-----7-9-10----10-9-7----7-9-10~9~----7-9-10---10-9-7-9~-7-7~-9-7--x8------|
A|--10------------------10-----------10--------------------------------------|
E|---------------------------------------------------------------------------|

Riff D:
e|-----------------------------------------------------------------------------|
B|-----------------------------------------------------------------------------|
G|------------9~-----------------------------------11~-------------------------|
D|----9-10-12---12-10-9----9-10-12~10~----11-12-14-----14-12-11----11-12-14~12~|
A|-12-------------------12-------------14-----------------------14-------------|
E|-----------------------------------------------------------------------------|

e|----------------------------------------------------------------------------------|
B|----------------------------------------------------------------------------------|
G|-------------12~--------------------------------------14~-------------------------|
D|----12-13-15-----15-13-12----12-13-15~13~----14-15-17-----17-15-14----14-15-17~15~|
A|-15-----------------------15--------------17-----------------------17-------------|
E|----------------------------------------------------------------------------------|

e|---------------------------------------------------------------------------|
B|---------------------------------------------------------------------------|
G|-------------16~-----------------------------------------------------------|
D|----16-17-19-----19-17-16----16-17-19~17~-x2-------------------------------|
A|-19-----------------------19-----------------------------------------------|
E|---------------------------------------------------------------------------|

Riff E:
e|---------------------------------------------------------------------------|
B|---------------------------------------------------------------------------|
G|-9-9-9---9---9---9---9-9-9---9-9-9---9---9---9---9-9-9---------------------|
D|---------------------------------------------------------------------------|
A|-7-7-7---7---7---7---7-7-7---7-7-7---7---7---7---7-7-7---------------------|
E|---------------------------------------------------------------------------|

Riff F:
e|---------------------------------------------------------------------------|
B|---------------------------------------------------------------------------|
G|----------4---------------4---------------4---------------4----------------|
D|----4-5-7---7-5-4---4-5-7---7-5-4---4-5-7---7-5-4---4-5-7---7-5-4---x7-----|
A|--7---------------7---------------7---------------7------------------------|
E|---------------------------------------------------------------------------|

Riff G: 
e|---------------------------------------------------------------------------|
B|---------------------------------------------------------------------------|
G|--------------4-----------------------5-4---4-----------------4------------|
D|-----4-5-7-5-7---7-5-7-5-4---4-5-7-5-7-----7---7-5---4-5-7-5-7---7-5-7-5-4-|
A|---7-----------------------7-----------------------7-----------------------|
E|---------------------------------------------------------------------------|

e|---------------------------------------------------------------------------|
B|---------------------------------------------------------------------------|
G|-5-4---4-----------------x2------------------------------------------------|
D|-----7---7-5-7-5-4-5-4--------4-5-7-5-4---4-5-7-5-4---4-5-7-5-4---4-5-7-5-4|
A|-----------------------7-----5-----------5-----------5-----------5---------|
E|---------------------------------------------------------------------------|

e|---------------------------------------------------------------------------|
B|---------------------------------------------------------------------------|
G|--------------4-----------------------5-4---4-----------------4------------|
D|-----4-5-7-5-7---7-5-7-5-4---4-5-7-5-7-----7---7-5---4-5-7-5-7---7-5-7-5-4-|
A|---7-----------------------7-----------------------7-----------------------|
E|---------------------------------------------------------------------------|

e|---------------------------------------------------------------------------|
B|---------------------------------------------------------------------------|
G|-5-4---4-----------------x3------------------------------------------------|
D|-----7---7-5-7-5-4-5-4--------4-5-7-5-4---4-5-7-5-4---4-5-7-5-4---4-5-7-5-4|
A|-----------------------7-----5-----------5-----------5-----------5---------|
E|---------------------------------------------------------------------------|

e|---------------------------------------------------------------------------|
B|---------------------------------------------------------------------------|
G|--------------4-----------------------5-4---4-----------------4------------|
D|-----4-5-7-5-7---7-5-7-5-4---4-5-7-5-7-----7---7-5---4-5-7-5-7---7-5-7-5-4-|
A|---7-----------------------7-----------------------7-----------------------|
E|---------------------------------------------------------------------------|

e|---------------------------------------------------------------------------|
B|---------------------------------------------------------------------------|
G|-5-4---4-------------------------------------------------------------------|
D|-----7---7-5-7-5-4-5-4-----------------------------------------------------|
A|-----------------------7---------------------------------------------------|
E|---------------------------------------------------------------------------|

Riff H (Solo):
e|---------------------------------------------------------------------------|
B|---------------------------------------------------------------------------|
G|-9---5-------5--7----------------------------------------------------------|
D|-9---5---7---5--7--x4------------------------------------------------------|
A|-7---3---7---3--5----------------------------------------------------------|
E|---------5-----------------------------------------------------------------|

Riff I:                 * * * *                             * * * *  
e|---------------------------------------------------------------------------|
B|---------------------------------------------------------------------------|
G|-----------------------------------------------7~--------------------------|
D|---10-9-7-9~-9-7-10~9----------10-9-7-10~-10-9----10-9-10------------------|
A|----------------------7-7-7-7-----------------------------7-7-7-7----------|
E|---------------------------------------------------------------------------|
                        * * * *
e|---------------------------------------------------------------------------|
B|---------------------------------------------------------------------------|
G|---------------------------------------------------------------------------|
D|--7-7-9-10~-9-7-10~-9----------7-7-9-10~-9-7--------------x2---------------|
A|----------------------7-7-7-7----------------9~-9-10-12~-------------------|
E|---------------------------------------------------------------------------|

Riff G

Riff J (Solo 2):
e|---------------------------------------------------------------------------|
B|---------------------------------------------------------------------------|
G|-2-------7-----------------------------------------------------------------|
D|-2---3---7---3--5----------------------------------------------------------|
A|-0---3---5---3--5-x5-------------------------------------------------------|
E|-----1-------1--3----------------------------------------------------------|

Riff I

Riff K:
e|---------------------------------------------------------------------------|
B|---------------------------------------------------------------------------|
G|---------------------------------------------------------------------------|
D|-7-5-4---7-5-4-7-5-4-7-5-4---8-9---8-9--x7---------------------------------|
A|---------------------------------------------------------------------------|
E|---------------------------------------------------------------------------|

Riff I
Riff K

(16:15):
e|---------------------------------------------------------------------------|
B|---------------------------------------------------------------------------|
G|---------------------------------------------------------------------------|
D|-9---7---5---7---x3--------------------------------------------------------|
A|-7---5---3---5-------------------------------------------------------------|
E|---------------------------------------------------------------------------|

Riff A

That is it. Remember you can view piano sheets here: https://goo.gl/UlYqu1

************************************
| *   Palm Mute
| /   slide up
| \   slide down
| h   hammer-on
| p   pull-off
| ~   vibrato
| +   harmonic
| x   Mute note
| b   Bend
| pb  Pre-bend
| br  Bend release
| pbr Pre-bend release
| brb Bend release bend

************************************
Добавлено: 27.02.2016
Другие материалы по этой песне:

Страница создана 27.02.2016
http://primanota.ru/iron-maiden/empire-of-clouds-chords.htm
Привет, Гость.
Предлагаем пройти революционный курс по гитаре.
Подарок от PrimaNota.Ru, забирай!