PrimaNota.ru - самый крупный в мире бесплатный архив песенных текстов, аккордов, табулатур и нот


Iron & Wine - Upwards Over The Mountain - таба, видео

Регистрация Запомнить меня
Войти через:  Facebook Google Twitter Vk Yandex Mail.ru

Iron & Wine - Upwards Over The Mountain - таба, видео

Печатать
Просмотров: 142
This is the slide solo at the end of Upwards Over The Mountain.

The other tab that is here is brilliant, but it's not quite right so I thought I'd fix 
up a bit and submit this one!  This is my very first tab, and I'm indebted to the Guy who 
the first one!

2x
e|------------------------------------------------------------------------------|
B|-1/3-0~--1/3-1~--1/3-0~--1/3--------------------------------------------------|
G|------------------------------2-----------------------------------------------|
D|------------------------------------------------------------------------------|
A|------------------------------------------------------------------------------|
E|------------------------------------------------------------------------------|


2x
e|-----------------------------------------------------------------------------|
B|-----------------------------------------------------------------------------|
G|-0h2-2/4-2-4-4/5-5/7-7-7/5-5/4-4/2-2p0-0h2-----------------------------------|
D|-----------------------------------------------------------------------------|
A|-----------------------------------------------------------------------------|
E|-----------------------------------------------------------------------------|


2x
e|-----------------------------------------------------------------------------|
B|-----------------------------------------------------------------------------|
G|-0h2-2/4-4/5-4-0~-2-4/5-4-0~-2-4/5-4-2~--------------------------------------|
D|-----------------------------------------------------------------------------|
A|-----------------------------------------------------------------------------|
E|-----------------------------------------------------------------------------|

end with this
e|-----------------------------------------------------------------------------|
B|-----------------------------------------------------------------------------|
G|-----------------------------------------------------------------------------|
D|-5/4-5/4-2~------------------------------------------------------------------|
A|-----------------------------------------------------------------------------|
E|-----------------------------------------------------------------------------|

Enjoy!
I'm so glad my first tab was for this song..it's such an awesome song!
Добавлено: 29.04.2012
Другие материалы по этой песне:
  • Аккорды и текст

Страница создана 29.04.2012
http://primanota.ru/iron-and-wine/upwards-over-the-mountain-chords.htm
Привет, Гость.
Предлагаем пройти революционный курс по гитаре.
Подарок от PrimaNota.Ru, забирай!