PrimaNota.ru - самый крупный в мире бесплатный архив песенных текстов, аккордов, табулатур и нот


Iron & Wine - Peace Beneath The City - таба, видео

Регистрация Запомнить меня
Войти через:  Facebook Google Twitter Vk Yandex Mail.ru

Iron & Wine - Peace Beneath The City - таба, видео

Печатать
Просмотров: 135
Iron & Wine
The Shepherd's Dog
Peace Beneath the City

This is just the basic pattern - you'll have to figure out the neat echo-y guitar on 
own, though it sounds alright even without it.

Drop D tuning
Capo on 4 (though he often plays it on 6 live)

Part A:
 | 1 + & + 2 + & + 3 + & + 4 + & + |
E|---------------------------------|
B|---------------------------------|
G|---------------------------------|
D|---7\5-----5-3---0-----0---3---5-|
A|---5\3-----3-3---0-----0---3---5-|
D|-0-------0-----------0---3---5---|

Part B:
 | 1 + & + 2 + & + 3 + & + 4 + & + |
E|---------------------------------|
B|---------------------------------|
G|---7\5-----5-0---2---------------|
D|---5\3-----3-0-------------------|
A|---------------------------------|
D|-0-------0-----------0---3---5---|

Part C:
 | 1 + & + 2 + & + 3 + & + 4 + & + |
E|---------------------------------|
B|---------------------------------|
G|---3\2-----2-0---2---------------|
D|---5\3-----3-0-------------------|
A|---------------------------------|
D|-0-------0-----------0---3---5---|


Ax2 (intro)
Bx2
Ax4
Ax4 (Here's a prayer for the body...)
Cx4 (Give me good legs...)
Bx2
Ax2
Ax4 (Sing a song for the bodies...)
Cx4 (Give me a juggernaut heart...)
Bx2
... (solo)
Ax2
Ax4 (Say something for the body...)
Cx4 (Give me a yellow brick road...)
...

Tabbed by Alex Phillips (bigAlPhillips -at- hotmail -dot- com).  Hope this helps!
Добавлено: 19.05.2012
Другие материалы по этой песне:
  • Аккорды и текст

Страница создана 19.05.2012
http://primanota.ru/iron-and-wine/peace-beneath-the-city-chords.htm
Привет, Гость.
Предлагаем пройти революционный курс по гитаре.
Подарок от PrimaNota.Ru, забирай!