PrimaNota.ru - самый крупный в мире бесплатный архив песенных текстов, аккордов, табулатур и нот


Ingrid Michaelson - Something More - таба, видео

Регистрация Запомнить меня
Войти через:  Facebook Google Twitter Vk Yandex Mail.ru

Ingrid Michaelson - Something More - таба, видео

Печатать
Просмотров: 234
Tabbed by: Kaija
Email: kaja.rose@gmail.com

Tuning:Standard EADGBe

This is my favourite Ingrid Michaelson song, (I was BUMMED to not see it on 'Everybody') 
no one has tabbed it.
So I decided to give it a shot.
(: Of course, it is played on a ukulele, so put a capo on the 4th fret and only play 
and we are good to go.
I strongly believe this tab is 100% accurate. If not 99.999%.

CAPO 4

Intro
e|-------5-------5-------3-------3-------3-------3-------3-------3-----------|
B|-----3-------3-------1-------1-------1-------1-------0-------0-------------|
G|---0-------0-------0-------0-------0-------0-------0-------0---------------|
D|-4-------4-------2-------2-------0-------0-------0-------0-----------------|
A|---------------------------------------------------------------------------|
E|---------------------------------------------------------------------------|

e|-------5-------5-------3-------3-------3-------3-------3-------3-----------|
B|-----3-------3-------1-------1-------1-------1-------0-------0-------------|
G|---0-------0-------0-------0-------0-------0-------0-------0---------------|
D|-4-------4-------2-------2-------0-------0-------0-------0-----------------|
A|---------------------------------------------------------------------------|
E|---------------------------------------------------------------------------|


Verse
             My love I have broken you
e|-------5-------5-------3-------3-------3-------3-------3-------3-----------|
B|-----3-------3-------1-------1-------1-------1-------0-------0-------------|
G|---0-------0-------0-------0-------0-------0-------0-------0---------------|
D|-4-------4-------2-------2-------0-------0-------0-------0-----------------|
A|---------------------------------------------------------------------------|
E|---------------------------------------------------------------------------|
             But you have broken me too
e|-------5-------5-------3-------3-------3-------3-------3-------3-----------|
B|-----3-------3-------1-------1-------1-------1-------0-------0-------------|
G|---0-------0-------0-------0-------0-------0-------0-------0---------------|
D|-4-------4-------2-------2-------0-------0-------0-------0-----------------|
A|---------------------------------------------------------------------------|
E|---------------------------------------------------------------------------|
             We both got blood on our hands
e|-------5-------5-------3-------3-------3-------3-------3-------3-----------|
B|-----3-------3-------1-------1-------1-------1-------0-------0-------------|
G|---0-------0-------0-------0-------0-------0-------0-------0---------------|
D|-4-------4-------2-------2-------0-------0-------0-------0-----------------|
A|---------------------------------------------------------------------------|
E|---------------------------------------------------------------------------|
             I won't claim innocence
e|-------5-------5-------3-------3-------3-------3-------3-------3-----------|
B|-----3-------3-------1-------1-------1-------1-------0-------0-------------|
G|---0-------0-------0-------0-------0-------0-------0-------0---------------|
D|-4-------4-------2-------2-------0-------0-------0-------0-----------------|
A|---------------------------------------------------------------------------|
E|---------------------------------------------------------------------------|


Chorus
              And I long for                Something more than me
e|-------3-------3-------3-------3-------5-------5-------5-------5-----------|
B|-----1-------1-------1-------1-------3-------3-------3-------3-------------|
G|---0-------0-------0-------0-------0-------0-------0-------0---------------|
D|-2-------2-------2-------2-------4-------4-------4-------4-----------------|
A|---------------------------------------------------------------------------|
E|---------------------------------------------------------------------------|

e|-------3-------3-------2-------3-------------------------------------------|
B|-----0-------0-------3-------3---------------------------------------------|
G|---0-------0-------2-------2-----------------------------------------------|
D|-2-------2-------0-------0-------------------------------------------------|
A|---------------------------------------------------------------------------|
E|---------------------------------------------------------------------------|
              And I long for                Something more than you
e|-------3-------3-------3-------3-------5-------5-------5-------5-----------|
B|-----1-------1-------1-------1-------3-------3-------3-------3-------------|
G|---0-------0-------0-------0-------0-------0-------0-------0---------------|
D|-2-------2-------2-------2-------4-------4-------4-------4-----------------|
A|---------------------------------------------------------------------------|
E|---------------------------------------------------------------------------|
                              In my head      In my head
e|-------3-------3-------3-------3-------3-------3--------3-------3----------|
B|-----0-------0-------0-------0-------1-------1--------1-------1------------|
G|---0-------0-------0-------0-------0-------0--------0-------0--------------|
D|-2-------2-------2-------2-------2-------2--------2-------2----------------|
A|---------------------------------------------------------------------------|
E|---------------------------------------------------------------------------|

e|-------5-------5-------3-------3-------3-------3-------3-------3-----------|
B|-----3-------3-------1-------1-------1-------1-------0-------0-------------|
G|---0-------0-------0-------0-------0-------0-------0-------0---------------|
D|-4-------4-------2-------2-------0-------0-------0-------0-----------------|
A|---------------------------------------------------------------------------|
E|---------------------------------------------------------------------------|

e|-------5-------5-------3-------3-------3-------3-------3-------3-----------|
B|-----3-------3-------1-------1-------1-------1-------0-------0-------------|
G|---0-------0-------0-------0-------0-------0-------0-------0---------------|
D|-4-------4-------2-------2-------0-------0-------0-------0-----------------|
A|---------------------------------------------------------------------------|
E|---------------------------------------------------------------------------|


Verse2
             We burned our whole house down
e|-------5-------5-------3-------3-------3-------3-------3-------3-----------|
B|-----3-------3-------1-------1-------1-------1-------0-------0-------------|
G|---0-------0-------0-------0-------0-------0-------0-------0---------------|
D|-4-------4-------2-------2-------0-------0-------0-------0-----------------|
A|---------------------------------------------------------------------------|
E|---------------------------------------------------------------------------|
             Our bodies in disrepair
e|-------5-------5-------3-------3-------3-------3-------3-------3-----------|
B|-----3-------3-------1-------1-------1-------1-------0-------0-------------|
G|---0-------0-------0-------0-------0-------0-------0-------0---------------|
D|-4-------4-------2-------2-------0-------0-------0-------0-----------------|
A|---------------------------------------------------------------------------|
E|---------------------------------------------------------------------------|
             And now we must rebuild
e|-------5-------5-------3-------3-------3-------3-------3-------3-----------|
B|-----3-------3-------1-------1-------1-------1-------0-------0-------------|
G|---0-------0-------0-------0-------0-------0-------0-------0---------------|
D|-4-------4-------2-------2-------0-------0-------0-------0-----------------|
A|---------------------------------------------------------------------------|
E|---------------------------------------------------------------------------|
             From ashes and silverware
e|-------5-------5-------3-------3-------3-------3-------3-------3-----------|
B|-----3-------3-------1-------1-------1-------1-------0-------0-------------|
G|---0-------0-------0-------0-------0-------0-------0-------0---------------|
D|-4-------4-------2-------2-------0-------0-------0-------0-----------------|
A|---------------------------------------------------------------------------|
E|---------------------------------------------------------------------------|


Chorus
              And I long for                Something more than me
e|-------3-------3-------3-------3-------5-------5-------5-------5-----------|
B|-----1-------1-------1-------1-------3-------3-------3-------3-------------|
G|---0-------0-------0-------0-------0-------0-------0-------0---------------|
D|-2-------2-------2-------2-------4-------4-------4-------4-----------------|
A|---------------------------------------------------------------------------|
E|---------------------------------------------------------------------------|

e|-------3-------3-------2-------3-------------------------------------------|
B|-----0-------0-------3-------3---------------------------------------------|
G|---0-------0-------2-------2-----------------------------------------------|
D|-2-------2-------0-------0-------------------------------------------------|
A|---------------------------------------------------------------------------|
E|---------------------------------------------------------------------------|
              And I long for                Something more than you
e|-------3-------3-------3-------3-------5-------5-------5-------5-----------|
B|-----1-------1-------1-------1-------3-------3-------3-------3-------------|
G|---0-------0-------0-------0-------0-------0-------0-------0---------------|
D|-2-------2-------2-------2-------4-------4-------4-------4-----------------|
A|---------------------------------------------------------------------------|
E|---------------------------------------------------------------------------|
                              In my head      In my head
e|-------3-------3-------3-------3-------3-------3--------3-------3----------|
B|-----0-------0-------0-------0-------1-------1--------1-------1------------|
G|---0-------0-------0-------0-------0-------0--------0-------0--------------|
D|-2-------2-------2-------2-------2-------2--------2-------2----------------|
A|---------------------------------------------------------------------------|
E|---------------------------------------------------------------------------|


Parts/outro

Start strumming
xx4035
xx2013
xx0013
xx0003

In my head
You're always in my head
In my head
You're always in my head

Boys: Oh-Oh  G|-0--4--|

Girls: I long for something more
             e|-2-3----2-3--------|
             B|-----3------3-1-0--|

keep strumming
end on
xx0003
Добавлено: 20.07.2012
Другие материалы по этой песне:
  • Аккорды и текст

Страница создана 20.07.2012
http://primanota.ru/ingrid-michaelson/something-more-chords.htm
Привет, Гость.
Предлагаем пройти революционный курс по гитаре.
Подарок от PrimaNota.Ru, забирай!