PrimaNota.ru - самый крупный в мире бесплатный архив песенных текстов, аккордов, табулатур и нот


Ingrid Michaelson - All Love - текст песни, таба, видео

Регистрация Запомнить меня
Войти через:  Facebook Google Twitter Vk Yandex Mail.ru

Ingrid Michaelson - All Love - текст песни, таба, видео

Печатать
Просмотров: 311
All Love
Ingrid Michaelson
tab by Juli3n

Here is the tab I found myself for the song All Love by Ingrid Michaelson
Enjoy and if you have the chords for the bridge I'm interested.
Juli3n

Intro

e|------0-------0-------0-------0-------0-------0-------0-------0---|
B|----4---4---4---4---4---4---4---4---4---4---4---4---4---4---4---4-|
G|--4-------4-------4-------4-------3-------3-------3-------3-------|
D|------------------------------------------------------------------|
A|------------------------------------------------------------------|
E|------------------------------------------------------------------|

e|----------------------------------------------------2---2---2---2-|
B|------4-------4-------4-------4-------4-------4-------2-------2---|
G|----4---4---4---4---4---4---4---4---4---4---4---4-----------------|
D|--7-------7-------7-------7-------6-------6-------4-------4-------|
A|------------------------------------------------------------------|
E|------------------------------------------------------------------|


    When I push the sheets away                     from your face
e|------0-------0-------0-------0-------0-------0-------0-------0---|
B|----4---4---4---4---4---4---4---4---4---4---4---4---4---4---4---4-|
G|--4-------4-------4-------4-------3-------3-------3-------3-------|
D|------------------------------------------------------------------|
A|------------------------------------------------------------------|
E|------------------------------------------------------------------|

           And watch you sleep all day              here
e|----------------------------------------------------2---2---2---2-|
B|------4-------4-------4-------4-------4-------4-------2-------2---|
G|----4---4---4---4---4---4---4---4---4---4---4---4-----------------|
D|--7-------7-------7-------7-------6-------6-------4-------4-------|
A|------------------------------------------------------------------|
E|------------------------------------------------------------------|

    And when I push you            away
e|------0-------0-------0-------0-------0-------0-------0-------0---|
B|----4---4---4---4---4---4---4---4---4---4---4---4---4---4---4---4-|
G|--4-------4-------4-------4-------3-------3-------3-------3-------|
D|------------------------------------------------------------------|
A|------------------------------------------------------------------|
E|------------------------------------------------------------------|

    And say you simply cannot      stay             here
e|----------------------------------------------------2---2---2---2-|
B|------4-------4-------4-------4-------4-------4-------2-------2---|
G|----4---4---4---4---4---4---4---4---4---4---4---4-----------------|
D|--7-------7-------7-------7-------6-------6-------4-------4-------|
A|------------------------------------------------------------------|
E|------------------------------------------------------------------|


Chorus
      It's all love       all love
e|------2-------2-------2-------2-------2-------2-------2-------2---|
B|----0---0---0---0---0---0---0---0---2---2---2---2---2---2---2---2-|
G|--1-------1-------------------------------------------------------|
D|------------------4-------4-------4-------4-------4-------4-------|
A|------------------------------------------------------------------|
E|------------------------------------------------------------------|

      It's all love       my stupid love
e|------0-------0-------2-------2---|
B|----0---0---0---0---0---0---0---0-|
G|--1-------1-----------------------|
D|------------------4-------4-------|
A|----------------------------------|
E|----------------------------------|





e|------0-------0-------0-------0-------0-------0-------0-------0---|
B|----4---4---4---4---4---4---4---4---4---4---4---4---4---4---4---4-|
G|--4-------4-------4-------4-------3-------3-------3-------3-------|
D|------------------------------------------------------------------|
A|------------------------------------------------------------------|
E|------------------------------------------------------------------|

e|----------------------------------------------------2---2---2---2-|
B|------4-------4-------4-------4-------4-------4-------2-------2---|
G|----4---4---4---4---4---4---4---4---4---4---4---4-----------------|
D|--7-------7-------7-------7-------6-------6-------4-------4-------|
A|------------------------------------------------------------------|
E|------------------------------------------------------------------|

           When I say you take away                  the most
e|------0-------0-------0-------0-------0-------0-------0-------0---|
B|----4---4---4---4---4---4---4---4---4---4---4---4---4---4---4---4-|
G|--4-------4-------4-------4-------3-------3-------3-------3-------|
D|------------------------------------------------------------------|
A|------------------------------------------------------------------|
E|------------------------------------------------------------------|

                 important part of  me         with you
e|----------------------------------------------------2---2---2---2-|
B|------4-------4-------4-------4-------4-------4-------2-------2---|
G|----4---4---4---4---4---4---4---4---4---4---4---4-----------------|
D|--7-------7-------7-------7-------6-------6-------4-------4-------|
A|------------------------------------------------------------------|
E|------------------------------------------------------------------|

           when I've had the greatest day               you had more
e|------0-------0-------0-------0-------0-------0-------0-------0---|
B|----4---4---4---4---4---4---4---4---4---4---4---4---4---4---4---4-|
G|--4-------4-------4-------4-------3-------3-------3-------3-------|
D|------------------------------------------------------------------|
A|------------------------------------------------------------------|
E|------------------------------------------------------------------|


    gray,              it's just your way      it's true
e|----------------------------------------------------2---2---2---2-|
B|------4-------4-------4-------4-------4-------4-------2-------2---|
G|----4---4---4---4---4---4---4---4---4---4---4---4-----------------|
D|--7-------7-------7-------7-------6-------6-------4-------4-------|
A|------------------------------------------------------------------|
E|------------------------------------------------------------------|



Chorus
      It's all love       all love           ohhhhhhhhh
e|------2-------2-------2-------2-------2-------2-------2-------2---|
B|----0---0---0---0---0---0---0---0---2---2---2---2---2---2---2---2-|
G|--1-------1-------------------------------------------------------|
D|------------------4-------4-------4-------4-------4-------4-------|
A|------------------------------------------------------------------|
E|------------------------------------------------------------------|

      It's all love       all love           ohhhhhhhhh
e|------2-------2-------2-------2-------2-------2-------2-------2---|
B|----0---0---0---0---0---0---0---0---2---2---2---2---2---2---2---2-|
G|--1-------1-------------------------------------------------------|
D|------------------4-------4-------4-------4-------4-------4-------|
A|------------------------------------------------------------------|
E|------------------------------------------------------------------|

      It's all love       all love           ohhhhhhhhh
e|------2-------2-------2-------2-------2-------2-------2-------2---|
B|----0---0---0---0---0---0---0---0---2---2---2---2---2---2---2---2-|
G|--1-------1-------------------------------------------------------|
D|------------------4-------4-------4-------4-------4-------4-------|
A|------------------------------------------------------------------|
E|------------------------------------------------------------------|

      It's all love       my stupid love
e|------0-------0-------2-------2---|
B|----0---0---0---0---0---0---0---0-|
G|--1-------1-----------------------|
D|------------------4-------4-------|
A|----------------------------------|
E|----------------------------------|



/***********************************************************************/
/** For now I can't find any chords, contact me if you've found some) **/
/***********************************************************************/

You can't be the one to kill the pain anymore
You let me in but then you slam my fingers in the door
I've had enough but I keep asking you to give me more

What I say
That is no way

E        B         F#M
It's all love, all love, ohh
E        B         F#M
It's all love, all love, ohh
E        B         F#M
It's all love, all love, ohh
E        F#M             B
It's all love, my stupid love


E        B         F#M
It's all love, all love, ohh
E        B         F#M
It's all love, all love, ohh
E        B         F#M
It's all love, all love, ohh
E        F#M             B
It's all love, my stupid love
Добавлено: 13.07.2012
Другие материалы по этой песне:
  • Аккорды и текст

Страница создана 13.07.2012
http://primanota.ru/ingrid-michaelson/all-love-chords.htm
Привет, Гость.
Предлагаем пройти революционный курс по гитаре.
Подарок от PrimaNota.Ru, забирай!