PrimaNota.ru - самый крупный в мире бесплатный архив песенных текстов, аккордов, табулатур и нот


Infant Annihilator - Whorespawn Bloodline Defiled - таба, видео

Регистрация Запомнить меня
Войти через:  Facebook Google Twitter Vk Yandex Mail.ru

Infant Annihilator - Whorespawn Bloodline Defiled - таба, видео

Печатать
Просмотров: 105
-------------------------------------------------------------------------------
              Whorespawn (Bloodline Defiled) - Infant Annihilator
-------------------------------------------------------------------------------
Tabbed by: Martinoob
E-mail:Martin1990991@gmx.de

Tuning: Drop A/E



guitar 1

 B|---------------------------------|
F#|---------------------------------|
 D|---------------------------------|
 A|---------------------------------|
 E|-1---0---4---3-------------------|
 A|-1---0---4---3-------------------|
 E|---------------------------------|


 B|-------------------------------------------------|---------------------------------|
F#|-------------------------------------------------|---------------------------------|
 D|-------------------------------------------------|---------------------------------|
 A|-------------------------------------------------|---------------------------------|
 E|-1---0---4---3---4-4-4-4-3-3-3-3-----------------|-1---0---4---3---4-------5-------|
 A|-1---0---4---3-------------------0-0-0-0-1-1-1-1-|-1---0---4---3-------------------|
 E|-------------------------------------------------|---------------------5-------6---|


 B|-------------------------------------------------|---------------------------------|
F#|-------------------------------------------------|---------------------------------|
 D|-------------------------------------------------|---------------------------------|
 A|-------------------------------------------------|---------------------------------|
 E|-1---0---4---3---4-4-4-4-3-3-3-3-----------------|-1---0---4---3-------------------|
 A|-1---0---4---3-------------------0-0-0-0-1-1-1-1-|-1---0---4---3-------------------|
 E|-------------------------------------------------|---------------------------------|


 B|-------------------------------------------------|------------------------------|
F#|-------------------------------------------------|------------------------------|
 D|-------------------------------------------------|------------------------------|
 A|-------------------------------------------------|-----------------4------------|
 E|-1---0---4---3-----------------------------------|-1---0---4---3---4------------|
 A|-1---0---4---3---4-4-4-4-3-3-3-3-0-0-0-0-1-1-1-1-|-1---0---4---3----------------|
 E|-------------------------------------------------|---------------------5---5brb-|
                                                                             p.h.

 B|-------------------------------------|---------------------------------|------------------------------------|
F#|-------------------------------------|---------------------------------|------------------------------------|
 D|-------------------------------------|---------------------------------|------------------------------------|
 A|-------------------------------------|---------------------------------|------------------------------------|
 E|-1---0--0--4---3---4--4--3---2---1---|-4---3---2---1---4-------5-------|-1---0--0--4---3---4--4--3---2---1--|
 A|-1---0--0--4---3---4--4--3---2---1---|-4---3---2---1-------------------|-1---0--0--4---3---4--4--3---2---1--|
 E|-------------------------------------|---------------------5-------6---|------------------------------------|
    *   *  *  *   *   *  *  *   *   *     *   *   *   *

*pick with hard upstrokes


 B|---------------------------------|-----------------------------------|-----------------------------|
F#|---------------------------------|-----------------------------------|-----------------------------|
 D|---------------------------------|-----------------------------------|-----------------------------|
 A|---------------------------------|-----------------------------------|-----------------------------|
 E|-4---3---2---0-------------------|-----0---0---0-------0---0--0--0---|-0----0--------0----0--------|
 A|-4---3---2---1-------------------|-----1---1---1-------1---1--1--1---|-1----1--------1----1--------|
 E|---------------------------------|-----------------------------------|-----------------------------|


 B|-----------------------------------|-----------------------------|------------------------------------------|
F#|-----------------------------------|-----------------------------|------------------------------------------|
 D|-----------------------------------|-----------------------------|------------------------------------------|
 A|-------------------3---------------|-----------------------------|------------------------------------------|
 E|-----0---0--0--0---3---3---2---1---|-0----0--------0----0--------|-----------------------0--0--0------------|
 A|-----1---1--1--1-------3---2---1---|-1----1--------1----1--------|-----------------------1--1--1------------|
 E|-----------------------------------|-----------------------------|------------------------------------------|


 B|-----------------------------|-------------------|---------------------------------|
F#|-----------------------------|-------------------|---------------------------------|
 D|-----------------------------|-------------------|---------------------------------|
 A|-----------------------------|-------------------|---------------------------------|
 E|-0----0--------0----0--------|-----0---0--0--0---|-2----1----------2----1----------|
 A|-1----1--------1----1--------|-----1---1--1--1---|-2----1----------2----1----------|
 E|-----------------------------|-------------------|---------------------------------|


 B|---------------------------------------|-------------------------------------|
F#|---------------------------------------|-------------------------------------|
 D|---------------------------------------|-------------------------------------|
 A|---------------------------------------|----------------------------3--3--3--|
 E|--------------3--------2---1---0---1---|-2----1---5--5--5--2----1------------|
 A|-----1p-0h-1-----2p-1--2---1---0---1---|-2----1------------2----1------------|
 E|---------------------------------------|-------------------------------------
                                                     < n.h.>           < n.h.>

 B|-----------------------------------|
F#|-----------------------------------|
 D|-----------------------------------|
 A|-3--3------------------------------|
 E|-------1---0---1---2---1---0---1---|
 A|-------1---0---1---2---1---0---1---|
 E|-----------------------------------|
   

 B|-----------------|-----------------------------------------------------------------|
F#|-----------------|-----------------------------------------------------------------|
 D|-----------------|-----------------------------------------------------------------|
 A|-----------------|-----------------------------------------------------------------|
 E|-----------------|-----------------------------------------------------------------|
 A|-----------------|-2-2-2-2-2-2-2-2-2-2-2-2-2-2-2-2-1-1-1-1-1-1-1-1-2-2-2-2-2-2-2-2-|
 E|-----------------|-----------------------------------------------------------------|


 B|-----------------------------------------------------------------|--------|---------------------------------|
F#|-----------------------------------------------------------------|--------|---------------------------------|
 D|-----------------------------------------------------------------|--------|---------------------------------|
 A|-----------------------------------------------------------------|--------|---------------------------------|
 E|-----------------------------------------------------------------|--------|-0-------------------0---0---0---|
 A|-5-5-5-5-5-5-5-5-5-5-5-5-5-5-5-5-4-4-4-4-4-4-4-4-4-4-4-4-4-4-4-4-|--------|-1-------------------1---1---1---|
 E|-----------------------------------------------------------------|--------|---------------------------------|


 B|---------------------------------|---------------------------------|--------|-------------------------------|
F#|---------------------------------|---------------------------------|--------|-------------------------------|
 D|---------------------------------|---------------------------------|--------|-------------------------------|
 A|---------------------------------|---------------------------------|--------|-------------------------------|
 E|---------0-----------0---0-------|-0---0---0-------0---0---0---0---|--------|-0-------------------0---0---0-|
 A|---------1-----------1---1-------|-1---1---1-------1---1---1---1---|--------|-1-------------------1---1---1-|
 E|---------------------------------|---------------------------------|--------|-------------------------------|


 B|---------------------------------|---------------------------------|--------|
F#|---------------------------------|---------------------------------|--------|
 D|---------------------------------|---------------------------------|--------|
 A|---------------------------------|---------------------------------|--------|
 E|---------0-----------0---0-------|-0---0---0-------0---0---0---0---|--------|
 A|---------1-----------1---1-------|-1---1---1-------1---1---1---1---|--------|
 E|---------------------------------|---------------------------------|--------|


 B|-------------------------------------|
F#|-------------------------------------|
 D|-------------------------------------|
 A|-------------------------------------|
 E|-1------------1--1--0----1----2--1---|
 A|-1------------1--1--0----1----2--1---|
 E|-------------------------------------|


 B|-------------------------------------|-----------------------|---------------------------------|
F#|-------------------------------------|-----------------------|---------------------------------|
 D|-------------------------------------|-----------------------|---------------------------------|
 A|-------------------------------------|-----------------------|---------------------------------|
 E|-2--1--0-----0--1--2--3b---3b---3b---|-----------0---0---0---|---------0-----------0---0-------|
 A|-2--1--0-----0--1--2-----------------|-----------1---1---1---|---------1-----------1---1-------|
 E|-------------------------------------|-4pbr2-----------------|---------------------------------|


 B|---------------------------------|--------|-------------------------------|-------------------------------|
F#|---------------------------------|--------|-------------------------------|-------------------------------|
 D|---------------------------------|--------|-------------------------------|-------------------------------|
 A|---------------------------------|--------|-------------------------------|-------------------------------|
 E|-0---0---0-------0---0---0---0---|--------|-6p-5--0---1---4---0--5h-6p-5h-|-6p-5--0---1---0--3p-2--0--0---|
 A|-1---1---1-------1---1---1---1---|--------|-------0---1---4---0-----------|-------0---1---0--------0--0---|
 E|---------------------------------|--------|-------------------------------|-------------------------------|


 B|----------------------|---------------------------------|---------------------------------|
F#|----------------------|---------------------------------|---------------------------------|
 D|----------------------|---------------------------------|---------------------------------|
 A|----------------------|-----------------------1p-0------|----4--3--1--3-------4p-3--------|
 E|-0---1----0---1---0---|-2h-3p-2h-3--0--1--4---------4---|-1---------------1---------1--4--|
 A|-0---1----0---1---0---|-------------0--1--4---------4---|-1---------------1---------1--4--|
 E|----------------------|---------------------------------|---------------------------------|


 B|-------------------------------|------------------------------|-----------------------------------------|
F#|-------------------------------|------------------------------|-----------------------------------------|
 D|-------------------------------|------------------------------|-----------------------------------------|
 A|-------------------1p-0--4p-3--|------------------------------|-----------------------------------------|
 E|-2---1---3p-2--0---------------|------------------------------|-6p-5--0---1---4---0---5-5-5-5-0---6p-5--|
 A|-2---1---------0---------------|------------------------------|-------0---1---4---0-----------0---------|
 E|-------------------------------|------------------------------|-----------------------------------------|


 B|-------------------------------------|-----------------------------------------|
F#|-------------------------------------|-----------------------------------------|
 D|-------------------------------------|-----------------------------------------|
 A|-------------------------------------|-----------------------------------------|
 E|-6p-5--0---1---3p-2--0---1---3---4---|-3p-2--1---3---4---1---2-2-2-2-1---3p-2--|
 A|-------0---1---------0---1---3---4---|-------1---3---4---1-----------1---------|
 E|-------------------------------------|-----------------------------------------|


 B|---------------------------------------------------|-----------------------------------------|
F#|---------------------------------------------------|-----------------------------------------|
 D|---------------------------------------------------|-----------------------------------------|
 A|---------------------------------------------------|-----------------------------------------|
 E|-3p-2--1---3---4-----------------------------------|-6p-5--0---1---4---0---5-5-5-5-0---6p-5--|
 A|-------1---3---4-----------------------------------|-------0---1---4---0-----------0---------|
 E|-------------------5-5-5-5-5-5-5-5-5-5-5-5-5-5-5-5-|-----------------------------------------|


 B|-------------------------------------|-----------------------------------------|
F#|-------------------------------------|-----------------------------------------|
 D|-------------------------------------|-----------------------------------------|
 A|-------------------------------------|-----------------------------------------|
 E|-6p-5--0---1---3p-2--0---1---3---4---|-3p-2--1---3---4---1---2-2-2-2-1---3p-2--|
 A|-------0---1---------0---1---3---4---|-------1---3---4---1-----------1---------|
 E|-------------------------------------|-----------------------------------------|


 B|---------------------------------------------------|
F#|---------------------------------------------------|
 D|---------------------------------------------------|
 A|---------------------------------------------------|
 E|-3p-2--1---3---4-----------------------------------|
 A|-------1---3---4-----------------------------------|
 E|-------------------5-5-5-5-5-5-5-5-5-5-5-5-5-5-5-5-|


 B|-----------------------------------------------------------------|
F#|-----------------------------------------------------------------|
 D|-----------------------------------------------------------------|
 A|-----------------------------------------------------------------|
 E|-----------------------------------------------------------------|
 A|-2-2-2-2-2-2-2-2-2-2-2-2-2-2-2-2-1-1-1-1-1-1-1-1-2-2-2-2-2-2-2-2-|
 E|-----------------------------------------------------------------|


 B|-----------------------------------------------------------------|
F#|-----------------------------------------------------------------|
 D|-----------------------------------------------------------------|
 A|-----------------------------------------------------------------|
 E|-----------------------------------------------------------------|
 A|-5-5-5-5-5-5-5-5-5-5-5-5-5-5-5-5-4-4-4-4-4-4-4-4-4-4-4-4-4-4-4-4-|
 E|-----------------------------------------------------------------|


 B|-----------------------------------------------------------------|
F#|-----------------------------------------------------------------|
 D|-----------------------------------------------------------------|
 A|-----------------------------------------------------------------|
 E|-----------------------------------------------------------------|
 A|-----------------------------------------------------------------|
 E|-6-6-6-6-6-6-6-6-6-6-6-6-6-6-6-6-6-6-6-6-6-6-6-6-3-3-3-3-3-3-3-3-|


 B|-----------------------------------------------------------------|------------------------------------------|
F#|-----------------------------------------------------------------|------------------------------------------|
 D|-----------------------------------------------------------------|------------------------------------------|
 A|-----------------------------------------------------------------|------------------------------------------|
 E|-----------------------------------------------------------------|---------------------------------1----2---|
 A|-----------------------------------------------------------------|-2-2-2-2-2-2-2-2-2-2-2-2-2-2-2-2-1----2---|
 E|-2-2-2-2-2-2-2-2-2-2-2-2-2-2-2-2-2-2-2-2-2-2-2-2-2-2-2-2-2-2-2-2-|------------------------------------------|


 B|-----------------------------------------------------------------|----------|
F#|-----------------------------------------------------------------|----------|
 D|-----------------------------------------------------------------|----------|
 A|-----------------------------------------------------------------|----------|
 E|-----------------------------------------------------------------|-6tr-b7~--|
 A|-5-5-5-5-5-5-5-5-5-5-5-5-5-5-5-5-4-4-4-4-4-4-4-4-4-4-4-4-4-4-4-4-|----------|
 E|-----------------------------------------------------------------|----------|


 B|----------|-----------------|
F#|----------|-----------------|
 D|----------|-----------------|
 A|----------|-2---------------|
 E|-b~~------|-2-----1----2----|
 A|----------|-2-----1----2----|
 E|----------|-----------------|


 B|-------------|------------------------|-----------------------------------------------------------------|
F#|-------------|------------------------|-----------------------------------------------------------------|
 D|-------------|------------------------|-----------------------------------------------------------------|
 A|-5-----4-----|-1----------------------|-----------------------------------------------------------------|
 E|-5-----4-----|-1----------------------|-----------------------------------------------------------------|
 A|-5-----4-----|-1----------------------|-----------------------------------------------------------------|
 E|-------------|--------3-3-3-3-3-3-3-3-|-2-2-2-2-2-2-2-2-2-2-2-2-2-2-2-2-2-2-2-2-2-2-2-2-2-2-2-2-2-2-2-2-|


 B|-----------------|-------------|-----------------|----------------------------|
F#|-----------------|-------------|-----------------|----------------------------|
 D|-----------------|-------------|-----------------|----------------------------|
 A|-2---------------|-5-----4-----|-----------------|----------------------------|
 E|-2-----1----2----|-5-----4-----|-1b~-----------* | *-~-*   *-~-*   *-~--------|
 A|-2-----1----2----|-5-----4-----|-1b~-----------* | *-~-*   *-~-*   *-~--------|
 E|-----------------|-------------|-----------------|----------------------------|
                                                  |---|   |---|   |---|  

*use killswitch, pedal or switch between pickups 



 B|-------------------------------------------------|
F#|-------------------------------------------------|
 D|-------------------------------------------------|
 A|-------------------------------------------------|
 E|-0--0--0--0-----0--0--0--0-----0--0--0--0-----0--|
 A|-1--1--1--1-----1--1--1--1-----1--1--1--1-----1--|
 E|-------------------------------------------------|


 B|-----------------------------------------|-------------------------------------------------|
F#|-----------------------------------------|-------------------------------------------------|
 D|-----------------------------------------|-------------------------------------------------|
 A|-----------------------------------------|-------------------------------------------------|
 E|-0--0--0-----0--0--0--0--4-------5-------|-0--0--0--0-----0--0--0--0-----0--0--0--0-----0--|
 A|-1--1--1-----1--1--1--1------------------|-1--1--1--1-----1--1--1--1-----1--1--1--1-----1--|
 E|-----------------------------5-------6---|-------------------------------------------------|


 B|-------------------------------------------------|-------------------------------------------------|
F#|-------------------------------------------------|-------------------------------------------------|
 D|-------------------------------------------------|-------------------------------------------------|
 A|-------------------------------------------------|-------------------------------------------------|
 E|-0--0--0-----0--0--0--0-----0--0--0--0-----0-----|-0--0--0--0-----0--0--0--0-----0--0--0--0-----0--|
 A|-1--1--1-----1--1--1--1-----1--1--1--1-----1-----|-1--1--1--1-----1--1--1--1-----1--1--1--1-----1--|
 E|-------------------------------------------------|-------------------------------------------------|


 B|-----------------------------------------|-------------------------------------------------|
F#|-----------------------------------------|-------------------------------------------------|
 D|-----------------------------------------|-------------------------------------------------|
 A|-----------------------------------------|-------------------------------------------------|
 E|-0--0--0-----0--0--0--0--4-------5-------|-0--0--0--0-----0--0--0--0-----0--0--0--0-----0--|
 A|-1--1--1-----1--1--1--1------------------|-1--1--1--1-----1--1--1--1-----1--1--1--1-----1--|
 E|-----------------------------5-------6---|-------------------------------------------------|


 B|-------------------------------------------------|-------------------------------------------------|
F#|-------------------------------------------------|-------------------------------------------------|
 D|-------------------------------------------------|-------------------------------------------------|
 A|-------------------------------------------------|-------------------------------------------------|
 E|-0--0--0-----0--0--0--0-----0--0--0--0-----0-----|-0--0--0--0-----0--0--0--0-----0--0--0--0-----0--|
 A|-1--1--1-----1--1--1--1-----1--1--1--1-----1-----|-1--1--1--1-----1--1--1--1-----1--1--1--1-----1--|
 E|-------------------------------------------------|-------------------------------------------------|


 B|-----------------------------------------|-------------------------------------------------|
F#|-----------------------------------------|-------------------------------------------------|
 D|-----------------------------------------|-------------------------------------------------|
 A|-----------------------------------------|-------------------------------------------------|
 E|-0--0--0-----0--0--0--0--4-------5-------|-0--0--0--0-----0--0--0--0-----------------------|
 A|-1--1--1-----1--1--1--1------------------|-1--1--1--1-----1--1--1--1-----------------------|
 E|-----------------------------5-------6---|-------------------------------------------------|


 B|-----------------------------------------|-------------------------------------------------|
F#|-----------------------------------------|-------------------------------------------------|
 D|-----------------------------------------|-------------------------------------------------|
 A|-----------------------------------------|-------------------------------------------------|
 E|-------------------------4-------5-------|-0--0--0--0-----0--0--0--0-----------------------|
 A|-----------------------------------------|-1--1--1--1-----1--1--1--1-----------------------|
 E|-----------------------------5-------6---|-------------------------------------------------|


 B|--------------------------------------|-------------------------------------------------|
F#|--------------------------------------|-------------------------------------------------|
 D|--------------------------------------|-------------------------------------------------|
 A|--------------------------------------|-------------------------------------------------|
 E|-------------------------4------------|-0--0--0--0--------------------------------------|
 A|-----------------------------1--------|-1--1--1--1--------------------------------------|
 E|---------------------------------4pbr2|-------------------------------------------------|


 B|-----------------------------17h20h23------|-------------------------------------------------|
F#|--------------------------19---------------|-------------------------------------------------|
 D|-----------------------17------------------|-------------------------------------------------|
 A|--------------------19---------------------|-------------------------------------------------|
 E|--------------18h21------------------------|-0--0--0--0-----0--0--0--0-----------------------|
 A|-----------22------------------------------|-1--1--1--1-----1--1--1--1-----------------------|
 E|-------------------------------------------|-------------------------------------------------|
                                      T


 B|-----------------------------------------|-------------------------------------------------|
F#|-----------------------------------------|-------------------------------------------------|
 D|-----------------------------------------|-------------------------------------------------|
 A|-----------------------------------------|-------------------------------------------------|
 E|-------------------------4-------5-------|-1---0---4---3---4-4-4-4-3-3-3-3-----------------|
 A|-----------------------------------------|-1---0---4---3-------------------0-0-0-0-1-1-1-1-|
 E|-----------------------------5-------6---|-------------------------------------------------|


 B|---------------------------------|
F#|---------------------------------|
 D|---------------------------------|
 A|---------------------------------|
 E|-1---0---4---3---4---3---1-------|
 A|-1---0---4---3---4---3---1-------|
 E|---------------------------------|





guitar 2

 B|---------------------------------|
F#|---------------------------------|
 D|---------------------------------|
 A|---------------------------------|
 E|-1---0---4---3-------------------|
 A|-1---0---4---3-------------------|
 E|---------------------------------|


 B|-------------------------------------------------|---------------------------------|
F#|-------------------------------------------------|---------------------------------|
 D|-------------------------------------------------|---------------------------------|
 A|-------------------------------------------------|---------------------------------|
 E|-1---0---4---3---4-4-4-4-3-3-3-3-----------------|-1---0---4---3---4-------5-------|
 A|-1---0---4---3-------------------0-0-0-0-1-1-1-1-|-1---0---4---3-------------------|
 E|-------------------------------------------------|---------------------5-------6---|


 B|-------------------------------------------------|---------------------------------|
F#|-------------------------------------------------|---------------------------------|
 D|-------------------------------------------------|---------------------------------|
 A|-------------------------------------------------|---------------------------------|
 E|-1---0---4---3---4-4-4-4-3-3-3-3-----------------|-1---0---4---3---3---2---1-------|
 A|-1---0---4---3-------------------0-0-0-0-1-1-1-1-|-1---0---4---3---4---3---2-------|
 E|-------------------------------------------------|---------------------------------|


 B|-------------------------------------------------|------------------------------|
F#|-------------------------------------------------|------------------------------|
 D|-------------------------------------------------|------------------------------|
 A|-------------------------------------------------|-----------------4------------|
 E|-1---0---4---3-----------------------------------|-1---0---4---3---4------------|
 A|-1---0---4---3---4-4-4-4-3-3-3-3-0-0-0-0-1-1-1-1-|-1---0---4---3----------------|
 E|-------------------------------------------------|---------------------5---5brb-|
                                                                             p.h.


 B|-------------------------------------|---------------------------------|------------------------------------|
F#|-------------------------------------|---------------------------------|------------------------------------|
 D|-------------------------------------|---------------------------------|------------------------------------|
 A|-------------------------------------|---------------------------------|------------------------------------|
 E|-1---0--0--4---3---4--4--3---2---1---|-4---3---2---1---4-------5-------|-1---0--0--4---3---4--4--3---2---1--|
 A|-1---0--0--4---3---4--4--3---2---1---|-4---3---2---1-------------------|-1---0--0--4---3---4--4--3---2---1--|
 E|-------------------------------------|---------------------5-------6---|------------------------------------|
    *   *  *  *   *   *  *  *   *   *     *   *   *   *

*pick with hard upstrokes


 B|---------------------------------|-----------------------------------|-----------------------------|
F#|---------------------------------|-----------------------------------|-----------------------------|
 D|---------------------------------|-----------------------------------|-----------------------------|
 A|---------------------------------|-----------------------------------|-----------------------------|
 E|-4---3---2---0-------------------|-----0---0---0-------0---0--0--0---|-0----0--------0----0--------|
 A|-4---3---2---1-------------------|-----1---1---1-------1---1--1--1---|-1----1--------1----1--------|
 E|---------------------------------|-----------------------------------|-----------------------------|


 B|-----------------------------------|-----------------------------|------------------------------------------|
F#|-----------------------------------|-----------------------------|------------------------------------------|
 D|-----------------------------------|-----------------------------|------------------------------------------|
 A|-------------------3---------------|-----------------------------|------------------------------------------|
 E|-----0---0--0--0---3---3---2---1---|-0----0--------0----0--------|-----0--0--0------------------------------|
 A|-----1---1--1--1-------3---2---1---|-1----1--------1----1--------|-----1--1--1------------------------------|
 E|-----------------------------------|-----------------------------|------------------------------------------|


 B|-----------------------------|-------------------|---------------------------------|
F#|-----------------------------|-------------------|---------------------------------|
 D|-----------------------------|-------------------|---------------------------------|
 A|-----------------------------|-------------------|---------------------------------|
 E|-0----0--------0----0--------|-----0---0--0--0---|-2----1----------2----1----------|
 A|-1----1--------1----1--------|-----1---1--1--1---|-2----1----------2----1----------|
 E|-----------------------------|-------------------|---------------------------------|


 B|---------------------------------------|-------------------------------------|
F#|---------------------------------------|-------------------------------------|
 D|---------------------------------------|-------------------------------------|
 A|---------------------------------------|----------------------------3--3--3--|
 E|--------------3--------2---1---0---1---|-2----1---5--5--5--2----1------------|
 A|-----1p-0h-1-----2p-1--2---1---0---1---|-2----1------------2----1------------|
 E|---------------------------------------|-------------------------------------
                                                     < n.h.>           < n.h.>

 B|-----------------------------------|
F#|-----------------------------------|
 D|-----------------------------------|
 A|-3--3------------------------------|
 E|-------1---0---1---2---1---0---1---|
 A|-------1---0---1---2---1---0---1---|
 E|-----------------------------------|
   

 B|-----------------|-----------------------------------------------------------------|
F#|-----------------|-----------------------------------------------------------------|
 D|-----------------|-----------------------------------------------------------------|
 A|-----------------|-----------------------------------------------------------------|
 E|-2---1---0---1---|-----------------------------------------------------------------|
 A|-2---1---0---1---|-2-2-2-2-2-2-2-2-2-2-2-2-2-2-2-2-1-1-1-1-1-1-1-1-2-2-2-2-2-2-2-2-|
 E|-----------------|-----------------------------------------------------------------|


 B|-----------------------------------------------------------------|--------|---------------------------------|
F#|-----------------------------------------------------------------|--------|---------------------------------|
 D|-----------------------------------------------------------------|--------|---------------------------------|
 A|-----------------------------------------------------------------|--------|---------------------------------|
 E|-----------------------------------------------------------------|--------|-0-------------------0---0---0---|
 A|-5-5-5-5-5-5-5-5-5-5-5-5-5-5-5-5-4-4-4-4-4-4-4-4-4-4-4-4-4-4-4-4-|--------|-1-------------------1---1---1---|
 E|-----------------------------------------------------------------|--------|---------------------------------|


 B|---------------------------------|---------------------------------|--------|-------------------------------|
F#|---------------------------------|---------------------------------|--------|-------------------------------|
 D|---------------------------------|---------------------------------|--------|-------------------------------|
 A|---------------------------------|---------------------------------|--------|-------------------------------|
 E|---------0-----------0---0-------|-0---0---0-------0---0---0---0---|--------|-0-------------------0---0---0-|
 A|---------1-----------1---1-------|-1---1---1-------1---1---1---1---|--------|-1-------------------1---1---1-|
 E|---------------------------------|---------------------------------|--------|-------------------------------|


 B|---------------------------------|---------------------------------|--------|
F#|---------------------------------|---------------------------------|--------|
 D|---------------------------------|---------------------------------|--------|
 A|---------------------------------|---------------------------------|--------|
 E|---------0-----------0---0-------|-0---0---0-------0---0---0---0---|--------|
 A|---------1-----------1---1-------|-1---1---1-------1---1---1---1---|--------|
 E|---------------------------------|---------------------------------|--------|


 B|-------------------------------------|
F#|-------------------------------------|
 D|-------------------------------------|
 A|-------------------------------------|
 E|-1------------1--1--0----1----2--1---|
 A|-1------------1--1--0----1----2--1---|
 E|-------------------------------------|


 B|-------------------------------------|-----------------------|---------------------------------|
F#|-------------------------------------|-----------------------|---------------------------------|
 D|-------------------------------------|-----------------------|---------------------------------|
 A|-------------------------------------|-----------------------|---------------------------------|
 E|-2--1--0-----0--1--2--3b---3b---3b---|-----------0---0---0---|---------0-----------0---0-------|
 A|-2--1--0-----0--1--2-----------------|-----------1---1---1---|---------1-----------1---1-------|
 E|-------------------------------------|-4pbr2-----------------|---------------------------------|


 B|---------------------------------|--------|-------------------------------|-------------------------------|
F#|---------------------------------|--------|-------------------------------|-------------------------------|
 D|---------------------------------|--------|-------------------------------|-------------------------------|
 A|---------------------------------|--------|-------------------------------|-------------------------------|
 E|-0---0---0-------0---0---0---0---|--------|-6p-5--0---1---4---0--5h-6p-5h-|-6p-5--0---1---0--3p-2--0--0---|
 A|-1---1---1-------1---1---1---1---|--------|-------0---1---4---0-----------|-------0---1---0--------0--0---|
 E|---------------------------------|--------|-------------------------------|-------------------------------|


 B|----------------------|---------------------------------|---------------------------------|
F#|----------------------|---------------------------------|---------------------------------|
 D|----------------------|---------------------------------|---------------------------------|
 A|----------------------|-----------------------1p-0------|----4--3--1--3-------4p-3--------|
 E|-0---1----0---1---0---|-2h-3p-2h-3--0--1--4---------4---|-1---------------1---------1--4--|
 A|-0---1----0---1---0---|-------------0--1--4---------4---|-1---------------1---------1--4--|
 E|----------------------|---------------------------------|---------------------------------|


 B|-------------------------------|------------------------------|-----------------------------------------|
F#|-------------------------------|------------------------------|-----------------------------------------|
 D|-------------------------------|------------------------------|-----------------------------------------|
 A|-------------------1p-0--4p-3--|------------------------------|-----------------------------------------|
 E|-2---1---3p-2--0---------------|------------------------------|-6p-5--0---1---4---0---5-5-5-5-0---6p-5--|
 A|-2---1---------0---------------|------------------------------|-------0---1---4---0-----------0---------|
 E|-------------------------------|------------------------------|-----------------------------------------|


 B|-------------------------------------|-----------------------------------------|
F#|-------------------------------------|-----------------------------------------|
 D|-------------------------------------|-----------------------------------------|
 A|-------------------------------------|-----------------------------------------|
 E|-6p-5--0---1---3p-2--0---1---3---4---|-3p-2--1---3---4---1---2-2-2-2-1---3p-2--|
 A|-------0---1---------0---1---3---4---|-------1---3---4---1-----------1---------|
 E|-------------------------------------|-----------------------------------------|


 B|---------------------------------------------------|-----------------------------------------|
F#|---------------------------------------------------|-----------------------------------------|
 D|---------------------------------------------------|-----------------------------------------|
 A|---------------------------------------------------|-----------------------------------------|
 E|-3p-2--1---3---4-----------------------------------|-6p-5--0---1---4---0---5-5-5-5-0---6p-5--|
 A|-------1---3---4-----------------------------------|-------0---1---4---0-----------0---------|
 E|-------------------5-5-5-5-5-5-5-5-5-5-5-5-5-5-5-5-|-----------------------------------------|


 B|-------------------------------------|-----------------------------------------|
F#|-------------------------------------|-----------------------------------------|
 D|-------------------------------------|-----------------------------------------|
 A|-------------------------------------|-----------------------------------------|
 E|-6p-5--0---1---3p-2--0---1---3---4---|-3p-2--1---3---4---1---2-2-2-2-1---3p-2--|
 A|-------0---1---------0---1---3---4---|-------1---3---4---1-----------1---------|
 E|-------------------------------------|-----------------------------------------|



 B|---------------------------------------------------|
F#|---------------------------------------------------|
 D|---------------------------------------------------|
 A|---------------------------------------------------|
 E|-3p-2--1---3---4-----------------------------------|
 A|-------1---3---4-----------------------------------|
 E|-------------------5-5-5-5-5-5-5-5-5-5-5-5-5-5-5-5-|


 B|-----------------------------------------------------------------|
F#|-----------------------------------------------------------------|
 D|-----------------------------------------------------------------|
 A|-----------------------------------------------------------------|
 E|-----------------------------------------------------------------|
 A|-2-2-2-2-2-2-2-2-2-2-2-2-2-2-2-2-1-1-1-1-1-1-1-1-2-2-2-2-2-2-2-2-|
 E|-----------------------------------------------------------------|


 B|-----------------------------------------------------------------|
F#|-----------------------------------------------------------------|
 D|-----------------------------------------------------------------|
 A|-----------------------------------------------------------------|
 E|-----------------------------------------------------------------|
 A|-5-5-5-5-5-5-5-5-5-5-5-5-5-5-5-5-4-4-4-4-4-4-4-4-4-4-4-4-4-4-4-4-|
 E|-----------------------------------------------------------------|


 B|-----------------------------------------------------------------|
F#|-----------------------------------------------------------------|
 D|-----------------------------------------------------------------|
 A|-----------------------------------------------------------------|
 E|-----------------------------------------------------------------|
 A|-----------------------------------------------------------------|
 E|-6-6-6-6-6-6-6-6-6-6-6-6-6-6-6-6-6-6-6-6-6-6-6-6-3-3-3-3-3-3-3-3-|


 B|-----------------------------------------------------------------|------------------------------------------|
F#|-----------------------------------------------------------------|------------------------------------------|
 D|-----------------------------------------------------------------|------------------------------------------|
 A|-----------------------------------------------------------------|------------------------------------------|
 E|-----------------------------------------------------------------|---------------------------------1----2---|
 A|-----------------------------------------------------------------|-2-2-2-2-2-2-2-2-2-2-2-2-2-2-2-2-1----2---|
 E|-2-2-2-2-2-2-2-2-2-2-2-2-2-2-2-2-2-2-2-2-2-2-2-2-2-2-2-2-2-2-2-2-|------------------------------------------|


 B|-----------------------------------------------------------------|----------|
F#|-----------------------------------------------------------------|----------|
 D|-----------------------------------------------------------------|----------|
 A|-----------------------------------------------------------------|----------|
 E|-----------------------------------------------------------------|-6tr-b7~--|
 A|-5-5-5-5-5-5-5-5-5-5-5-5-5-5-5-5-4-4-4-4-4-4-4-4-4-4-4-4-4-4-4-4-|----------|
 E|-----------------------------------------------------------------|----------|


 B|----------|-----------------|
F#|----------|-----------------|
 D|----------|-----------------|
 A|----------|-2---------------|
 E|-b~~------|-2-----1----2----|
 A|----------|-2-----1----2----|
 E|----------|-----------------|


 B|-------------|------------------------|-----------------------------------------------------------------|
F#|-------------|------------------------|-----------------------------------------------------------------|
 D|-------------|------------------------|-----------------------------------------------------------------|
 A|-5-----4-----|-1----------------------|-----------------------------------------------------------------|
 E|-5-----4-----|-1----------------------|-----------------------------------------------------------------|
 A|-5-----4-----|-1----------------------|-----------------------------------------------------------------|
 E|-------------|--------3-3-3-3-3-3-3-3-|-2-2-2-2-2-2-2-2-2-2-2-2-2-2-2-2-2-2-2-2-2-2-2-2-2-2-2-2-2-2-2-2-|


 B|-----------------|-------------|-----------------|----------------------------|---------|
F#|-----------------|-------------|-----------------|----------------------------|---------|
 D|-----------------|-------------|-----------------|----------------------------|---------|
 A|-2---------------|-5-----4-----|-----------------|----------------------------|---------|
 E|-2-----1----2----|-5-----4-----|-1b~-----------* | *-~-*   *-~-*   *-~--------|---------|
 A|-2-----1----2----|-5-----4-----|-1b~-----------* | *-~-*   *-~-*   *-~--------|---------|
 E|-----------------|-------------|-----------------|----------------------------|---------|
                                                  |---|   |---|   |---|  

*use killswitch, pedal or switch between pickups 



 B|-----------------------------------------|-------------------------------------------------|
F#|-----------------------------------------|-------------------------------------------------|
 D|-----------------------------------------|-------------------------------------------------|
 A|-----------------------------------------|-------------------------------------------------|
 E|-------------------------4-------5-------|-0--0--0--0-----0--0--0--0-----0--0--0--0-----0--|
 A|-----------------------------------------|-1--1--1--1-----1--1--1--1-----1--1--1--1-----1--|
 E|-----------------------------5-------6---|-------------------------------------------------|


 B|-------------------------------------------------|-------------------------------------------------|
F#|-------------------------------------------------|-------------------------------------------------|
 D|-------------------------------------------------|-------------------------------------------------|
 A|-------------------------------------------------|-------------------------------------------------|
 E|-0--0--0-----0--0--0--0-----0--0--0--0-----0-----|-0--0--0--0-----0--0--0--0-----0--0--0--0-----0--|
 A|-1--1--1-----1--1--1--1-----1--1--1--1-----1-----|-1--1--1--1-----1--1--1--1-----1--1--1--1-----1--|
 E|-------------------------------------------------|-------------------------------------------------|


 B|-----------------------------------------|-------------------------------------------------|
F#|-----------------------------------------|-------------------------------------------------|
 D|-----------------------------------------|-------------------------------------------------|
 A|-----------------------------------------|-------------------------------------------------|
 E|-0--0--0-----0--0--0--0--4-------5-------|-0--0--0--0-----0--0--0--0-----0--0--0--0-----0--|
 A|-1--1--1-----1--1--1--1------------------|-1--1--1--1-----1--1--1--1-----1--1--1--1-----1--|
 E|-----------------------------5-------6---|-------------------------------------------------|


 B|-------------------------------------------------|-------------------------------------------------|
F#|-------------------------------------------------|-------------------------------------------------|
 D|-------------------------------------------------|-------------------------------------------------|
 A|-------------------------------------------------|-------------------------------------------------|
 E|-0--0--0-----0--0--0--0-----0--0--0--0-----0-----|-0--0--0--0-----0--0--0--0-----0--0--0--0-----0--|
 A|-1--1--1-----1--1--1--1-----1--1--1--1-----1-----|-1--1--1--1-----1--1--1--1-----1--1--1--1-----1--|
 E|-------------------------------------------------|-------------------------------------------------|


 B|-----------------------------------------|-------------------------------------------------|
F#|-----------------------------------------|-------------------------------------------------|
 D|-----------------------------------------|-------------------------------------------------|
 A|-----------------------------------------|-------------------------------------------------|
 E|-0--0--0-----0--0--0--0--4-------5-------|-0--0--0--0-----0--0--0--0-----------------------|
 A|-1--1--1-----1--1--1--1------------------|-1--1--1--1-----1--1--1--1-----------------------|
 E|-----------------------------5-------6---|-------------------------------------------------|


 B|-----------------------------------------|-------------------------------------------------|
F#|-----------------------------------------|-------------------------------------------------|
 D|-----------------------------------------|-------------------------------------------------|
 A|-----------------------------------------|-------------------------------------------------|
 E|-------------------------4-------5-------|-0--0--0--0-----0--0--0--0-----0--0--0--0-----0--|
 A|-----------------------------------------|-1--1--1--1-----1--1--1--1-----1--1--1--1-----1--|
 E|-----------------------------5-------6---|-------------------------------------------------|


 B|--------------------------------------|-------------------------------------------------|
F#|--------------------------------------|-------------------------------------------------|
 D|--------------------------------------|-------------------------------------------------|
 A|--------------------------------------|-------------------------------------------------|
 E|-0--0--0-----0--0--0--0--4------------|-0--0--0--0--------------------------------------|
 A|-1--1--1-----1--1--1--1------1--------|-1--1--1--1--------------------------------------|
 E|---------------------------------4pbr2|-------------------------------------------------|


 B|-----------------------------14h17h20------|-------------------------------------------------|
F#|--------------------------16---------------|-------------------------------------------------|
 D|-----------------------14------------------|-------------------------------------------------|
 A|--------------------16---------------------|-------------------------------------------------|
 E|--------------15h18------------------------|-0--0--0--0-----0--0--0--0-----------------------|
 A|-----------19------------------------------|-1--1--1--1-----1--1--1--1-----------------------|
 E|-------------------------------------------|-------------------------------------------------|
                                      T


 B|-----------------------------------------|-------------------------------------------------|
F#|-----------------------------------------|-------------------------------------------------|
 D|-----------------------------------------|-------------------------------------------------|
 A|-----------------------------------------|-------------------------------------------------|
 E|-------------------------4-------5-------|-1---0---4---3---4-4-4-4-3-3-3-3-----------------|
 A|-----------------------------------------|-1---0---4---3-------------------0-0-0-0-1-1-1-1-|
 E|-----------------------------5-------6---|-------------------------------------------------|


 B|---------------------------------|
F#|---------------------------------|
 D|---------------------------------|
 A|---------------------------------|
 E|-1---0---4---3---4---3---1-------|
 A|-1---0---4---3---4---3---1-------|
 E|---------------------------------|



************************************

| /    slide up
| \    slide down
| h    hammer-on
| p    pull-off
| ~    vibrato
| +    harmonic
| x    Mute note
| b    Bend
| pb   Pre-bend
| br   Bend release
| pbr  Pre-bend release
| brb  Bend release bend
| p.h. pinch harmonic
| n.h. natural harmonic
| tr   tremolo picking
| T    finger tapping 

************************************
Добавлено: 01.04.2016
Вам также может быть интересно:
Другие материалы по этой песне:

Страница создана 01.04.2016
http://primanota.ru/infant-annihilator/whorespawn-bloodline-defiled-chords.htm
Привет, Гость.
Предлагаем пройти революционный курс по гитаре.
Подарок от PrimaNota.Ru, забирай!