PrimaNota.ru - самый крупный в мире бесплатный архив песенных текстов, аккордов, табулатур и нот


In Hearts Wake - Healer - таба, видео

Регистрация Запомнить меня
Войти через:  Facebook Google Twitter Vk Yandex Mail.ru

In Hearts Wake - Healer - таба, видео

Печатать
Просмотров: 242
-------------------------------------------------------------------------------
                             HEALER - IN HEARTS WAKE
-------------------------------------------------------------------------------
Tabbed by: Sean van Vuuren

Tuning: Standard

e|--8------8-7--------7-8-10---5------10--13--12---8-------------------------|
B|-----5---------5-----------------------------------------------------------|
G|---------------------------------------------------------------------------|
D|---------------------------------------------------------------------------|
A|---------------------------------------------------------------------------|
E|---------------------------------------------------------------------------|

e|--8----------8--7-------------7--5-----------------------------------------|
B|-------5--------------5----------------------------------------------------|
G|---------------------------------------------------------------------------|
D|---------------------------------------------------------------------------|
A|---------------------------------------------------------------------------|
E|---------------------------------------------------------------------------|

Добавлено: 28.11.2015
Вам также может быть интересно:
Другие материалы по этой песне:
  • Аккорды и текст

Страница создана 28.11.2015
http://primanota.ru/in-hearts-wake/healer-chords.htm
Привет, Гость.
Предлагаем пройти революционный курс по гитаре.
Подарок от PrimaNota.Ru, забирай!