PrimaNota.ru - самый крупный в мире бесплатный архив песенных текстов, аккордов, табулатур и нот


In Extremo - Dacw Nghariad - бас-таба, видео

Регистрация Запомнить меня
Войти через:  Facebook Google Twitter Vk Yandex Mail.ru

In Extremo - Dacw Nghariad - бас-таба, видео

Печатать
Просмотров: 138
Уроки эстрадного вокала в Санкт-Петербурге
Авторы: [traditional]

Album: Quid pro quo
Time signature: 4/4

[Intro] (join at: 1:04)
G|------------------------|------------------------|
D|------------------------|------------------------|
A|2---2-2-2-2-2-.-2-.---2-|2-2-2-2-2-2-2-.---------| 3x
E|------------------------|------------------------|
B|------------------------|------------------------|

G|------------------------|------------------------|
D|------------------------|------------------------|
A|2-----2-2-2-2-.-2-.---2-|2-2-2-2-2-2-2-.---------|
E|------------------------|------------------------|
B|------------------------|------------------------|

[Verse I]
G|------------------------|------------------------|
D|------------------------|------------------------|
A|2---2-2-2-2-2-.-2-.---2-|2-2-2-2-2-2-2-.---------| 6x
E|------------------------|------------------------|
B|------------------------|------------------------|

G|------------------------|------------------------|------------------------|------------------------|
D|------------------------|2-----0-----------------|------------------------|------------------------|
A|0---0-0-0-0-0-.-0-.---0-|------------4-----------|2---2-2-2-2-2-.-2-.---2-|2-2-2-2-2-2-2-.---------|
E|------------------------|------------------------|------------------------|------------------------|
B|------------------------|------------------------|------------------------|------------------------|

[Transition I]
G|------------------------|
D|------------------------|
A|2~--------------------2-| 3x
E|------------------------|
B|------------------------|

G|------------4-4-4-4-----|
D|----------4-------------|
A|2~----------------------|
E|------------------------|
B|------------------------|

[Verse II]
G|------------------------|------------------------|
D|------------------------|------------------------|
A|2---2-2-2-2-2-.-2-.---2-|2-2-2-2-2-2-2-.---------| 6x
E|------------------------|------------------------|
B|------------------------|------------------------|

G|------------------------|------------------------|------------------------|------------------------|
D|------------------------|2-----0-----------------|------------------------|------------------------|
A|0---0-0-0-0-0-.-0-.---0-|------------4-----------|2---2-2-2-2-2-.-2-.---2-|2-2-2-2-2-2-2-.---------|
E|------------------------|------------------------|------------------------|------------------------|
B|------------------------|------------------------|------------------------|------------------------|

[Transition II]
G|----------------|----------------|
D|----------------|----------------|
A|2~--------------|2~--------------|
E|----------------|------------11\-|
B|----------------|----------------|

[Solo I]
G|----------------|----------------|----------------|----------------|
D|----------------|----------------|----------------|----------------|
A|----------------|----------------|----------------|----------------| 2x
E|5---5---5---5---|3---3---3---3---|----------------|----------------|
B|----------------|----------------|1---1---1---1---|3---3---3---3---|

G|----------------|----------------|----------------|----------------|
D|----------------|----------------|----------------|----------------|
A|----------------|----------------|----------------|----------------|
E|5---5---5---5---|3---3---3---3---|----------------|6---6---6---6---|
B|----------------|----------------|1---1---1---1---|----------------|

G|----------------|----------------|----------------|----------------|
D|----------------|----------------|----------------|----------------|
A|----------------|----------------|----------------|----------------|
E|5---5---5---5---|3---3---3---3---|----------------|----------------|
B|----------------|----------------|1---1---1---1---|3---3---3---3---|

[Verse III]
Rest 16 measures, join at 3:14.

G|------------------------|------------------------|
D|------------------------|------------------------|
A|2---2-2-2-2-2-.-2-.---2-|2-2-2-2-2-2-2-.---------| 6x
E|------------------------|------------------------|
B|------------------------|------------------------|

G|------------------------|------------------------|------------------------|------------------------|
D|------------------------|------------------------|------------------------|------------------------|
A|0---0-0-0-0-0-.-0-.---0-|0-0-0-0-0-0-4-----------|2---2-2-2-2-2-.-2-.---2-|2-2-2-2-2-2-2-.---------|
E|------------------------|------------------------|------------------------|------------------------|
B|------------------------|------------------------|------------------------|------------------------|

[Solo II]
G|----------------|----------------|----------------|----------------|
D|----------------|----------------|----------------|----------------|
A|----------------|----------------|----------------|----------------| 2x
E|5---5---5---5---|3---3---3---3---|----------------|----------------|
B|----------------|----------------|1---1---1---1---|3---3---3---3---|

G|----------------|----------------|----------------|----------------|
D|----------------|----------------|----------------|----------------|
A|----------------|----------------|----------------|----------------|
E|5---5---5---5---|3---3---3---3---|----------------|6---6---6---6---|
B|----------------|----------------|1---1---1---1---|----------------|

G|----------------|----------------|----------------|----------------|
D|----------------|----------------|----------------|----------------|
A|----------------|----------------|----------------|----------------|
E|5---5---5---5---|3---3---3---3---|----------------|----------------|
B|----------------|----------------|1---1---1---1---|3---3---3---3---|

[Outro]
G|------------------------|------------------------|
D|------------------------|------------------------|
A|2---2-2-2-2-2-.-2-.---2-|2-2-2-2-2-2-2-.---------|
E|------------------------|------------------------|
B|------------------------|------------------------|

***********************************
| \   Slide down
| ~   Vibrato
| .   Staccato
***********************************
Добавлено: 24.11.2017
Другие материалы по этой песне:
  • Аккорды и текст

Страница создана 24.11.2017
http://primanota.ru/in-extremo/dacw-nghariad-chords.htm
Привет, Гость.
Предлагаем пройти революционный курс по гитаре.
Подарок от PrimaNota.Ru, забирай!