PrimaNota.ru - самый крупный в мире бесплатный архив песенных текстов, аккордов, табулатур и нот


Iggy Pop - Search And Destroy - аккорды и текст, таба, видео

Регистрация Запомнить меня
Войти через:  Facebook Google Twitter Vk Yandex Mail.ru

Iggy Pop - Search And Destroy - аккорды и текст, таба, видео

Печатать
Просмотров: 250
Авторы: James Williamson, Iggy Pop
Авторы музыки: James Williamson, Iggy Pop

Search And Destroy
Iggy Pop
Intro (distortion)
E|----------------------|---------------|-----10--10-10-10----|
B|----------------------|---------------|-----10--10-10-10----|
G|-------------------10-|---------------|-----11--11-11-11----|
D|-12-12-12-12-12\10-10-|-8-8-8-8-8--10-|-----12--12-12-12----|
A|-12-12-12-12-12\10-8--|-8-8-8-8-8--10-|-----12--12-12-12----|
E|-10-10-10-10-10\8-----|-6-6-6-6-6--8--|-10--10--10-10-10----|
P.M.----------------------------------|
 
Intro (continued)
E|-10-10-10-10----10----|
B|-12-12-12-12----10----|
G|-12-12-12-12----11----|
D|-12-12-12-12----12----|
A|-10-10-10-10----12----|
E|----------------10----|
Добавлено: 11.11.2013
Другие материалы по этой песне:

Страница создана 03.03.2012
http://primanota.ru/iggy-pop/search-and-destroy-chords.htm
Привет, Гость.
Предлагаем пройти революционный курс по гитаре.
Подарок от PrimaNota.Ru, забирай!