PrimaNota.ru - самый крупный в мире бесплатный архив песенных текстов, аккордов, табулатур и нот


Iggy Pop - 1969 - аккорды и текст, таба, видео

Регистрация Запомнить меня
Войти через:  Facebook Google Twitter Vk Yandex Mail.ru

Iggy Pop - 1969 - аккорды и текст, таба, видео

Печатать
Просмотров: 251
Авторы музыки: Dave Alexander, Scott Asheton, Ron Asheton, Iggy Pop

1969
Iggy Pop
Intro
Q=106
Am
4/4
Gtr II
E Q H H H H H H H H
| | | |
/ / / /

Gtr I
E E E H +E E E E H Q E E H +E E E E H +E E E E
|-5-----||-5----(5)-5-----|-5---------5-|-5----(5)---5---|-5----(5)--------||
|-5-7---||-5----(5)-5---5-|-5----5--5-5-|-5----(5)-5-5---|-5----(5)-5-7----||
|-5-7-5-||-5----(5)-5-7-5-|-5----5--7-5-|-5----(5)-5-7-5-|-5----(5)-5-7----||
|---7-5-||------------7-5-|------5----5-|----------5---5-|------------7-5--||
|-------||----------------|-------------|----------------|-----------------||
|-------||----------------|-------------|----------------|-----------------||


Faster Q=212(8=s8)
Q E E +Q Q W W W
| | |
/ / /

Q. E +Q Q +E Q. Q Q Q. E +Q Q +E Q. Q Q
||------------------|----------------|-5--------------|------------------||
||o-------5-(5)-----|----------------|-5--------------|-----------------o||
||--------5-(5)-----|-------------5--|-5----5-(5)-----|-------------5----||
||--7-----5-(5)--7--|-(7)-5----7--5--|-7----5-(5)--7--|-(7)-5----7--5----||
||o-7-----7-(7)--7--|-(7)-5----7--5--|-7----5-(5)--7--|-(7)-5----7--5---o||
||--5-----5-(5)--5--|-(5)-5----5--5--|-5----5-(5)--5--|-(5)-5----5--5----||


Verses
$
Q. E +Q Q +E Q. Q Q Q. E +Q Q +E Q. Q Q
||-----------------|----------------|----------------|-----------------|
||o------5-(5)-----|-----5----------|----------------|-----------------|
||-------5-(5)-----|-----5-------5--|----------------|-----------------|
||--7----5-(5)--7--|-(7)-5----7--5--|-7----5-(5)--7--|-(7)-5----7--5---|
||o-7----5-(5)--7--|-(7)-5----7--5--|-7----5-(5)--7--|-(7)-5----7--5---|
||--5----5-(5)--5--|-(5)-5----5--5--|-5----5-(5)--5--|-(5)-5----5--5---|


Q. E +Q Q +E Q. Q Q Q. E +Q Q +E Q. Q Q
|----------------|----------------|-5--------------|-----------------||
|----------------|----------------|-5--------------|----------------o||
|----------------|-------------5--|-5----5-(5)-----|-----5-------5---||
|-7----5-(5)--7--|-(7)-5----7--5--|-7----5-(5)--7--|-(7)-5----7--5---||
|-7----5-(5)--7--|-(7)-5----7--5--|-7----5-(5)--7--|-(7)-5----7--5--o||
|-5----5-(5)--5--|-(5)-5----5--5--|-5----5-(5)--5--|-(5)-5----5--5---||


Pre-Chorus
W +H. E E W +H. +Q
|----------|--------------|----------|----------------|
|----------|--------------|----------|----------------|
|----------|--------------|----------|----------------|
|-7--------|-(7)------7-7-|-5--------|-(5)------(5)/--|
|-7--------|-(7)------7-7-|-5--------|-(5)------(5)/--|
|-5--------|-(5)------5-5-|-3--------|-(3)------(3)/--|


D.S.
Q. E +Q Q +E Q. Q Q Q. E +Q Q +E Q. Q Q
||-----------------|----------------|----------------|------------------||
||o----------------|-------------5--|----------------|-----5-----------o||
||-------5-(5)-----|-------------5--|------5-(5)-----|-----5-------5----||
||--7----5-(5)--7--|-(7)-5----7--5--|-7----5-(5)--7--|-(7)-5----7--5----||
||o-7----5-(5)--7--|-(7)-5----7--5--|-7----5-(5)--7--|-(7)-5----7--5---o||
||--5----5-(5)--5--|-(5)-5----5--5--|-5----5-(5)--5--|-(5)-5----5--5----||


Bridge
Q. E +Q Q +E Q. Q Q Q. E +Q Q +E Q. Q Q
||-----------------|-----5----5--5--|------5-(5)-----|-----5---------|
||o------5-(5)-----|-----5----6--5--|------5-(5)-----|-----6-------5-|
||--7----5-(5)--7--|-(7)-5----7--5--|-7----5-(5)--7--|-(7)-5----7--5-|
||--7----5-(5)--7--|-(7)-5----7--5--|-7----5-(5)--7--|-(7)-5----7--5-|
||o-5----5-(5)--5--|-(5)-5----5--5--|-5----5-(5)--5--|-(5)-5----5--5-|
||-----------------|----------------|----------------|---------------|


1.
Q. E +Q Q +E Q. Q Q Q. E +Q Q +E Q. Q Q
|------5-(5)--5--|-(5)---------5--|----------------|-------------5---||
|------5-(5)--5--|-(5)---------5--|------5-(5)-----|-----5-------5--o||
|------5-(5)--5--|-(5)-5-------5--|------5-(5)-----|-----5-------5---||
|-7----5-(5)--7--|-(7)-5----7--5--|-7----5-(5)--7--|-(7)-5----7--5---||
|-7----5-(5)--7--|-(7)-5----7--5--|-7----5-(5)--7--|-(7)-5----7--5--o||
|-5----5-(5)--5--|-(5)-5----5--5--|-5----5-(5)--5--|-(5)-5----5--5---||


2.
W +H. E E W +H +H
|----------|--------------|----------|---------------|
|----------|--------------|----------|---------------|
|----------|--------------|----------|---------------|
|-7--------|-(7)------7-7-|-5--------|-(5)----(5)----|
|-7--------|-(7)------7-7-|-5--------|-(5)----(5)----|
|-5--------|-(5)------5-5-|-3--------|-(3)----(3)----|


A5
Gtr I
W +H. Q
| | |
/ / /

Gtr II
|-3-| |-3--| |-3-| |-3-|
Q. E +Q E E E E E E E E E E E E Q
|-------------------|------------------------|
|-------------------|------------------------|
|-9----9-(9)--9-9-9-|--9--9-9-9-9-9-9-9-9-9--|
|-7----7-(7)--7-7-7-|--7--7-7-7-7-7-7-7-7-7--|
|-0----0-(0)--0-0-0-|--0--0-0-0-0-0-0-0-0-0--|
|-------------------|------------------------|


G5
W W
| |
/ /

|-3-| |-3-| |-3-|
Q. E E E E E E E E E E E E Q Q
|------------------|---------------------||
|------------------|---------------------||
|-9----9-9-9-9-9-9-|-9-9-9-9-9-9-9--9----||
|-7----7-7-7-7-7-7-|-7-7-7-7-7-7-7--7----||
|-0----0-0-0-0-0-0-|-0-0-0-0-0-0-0--0----||
|------------------|---------------------||


Chorus
A5
H Q Q E E Q E E Q
| | | | | | | | |
/ / / / / / / / /

|-3-| |--3--| |-3-|
Q. E E E E E E E E E E E E H
|------------------|----------------------|
|------------------|----------------------|
|-9----9-9-9-9-9-9-|-9-9---9-9-9-9-9------|
|-7----7-7-7-7-7-7-|-7-7---7-7-7-7-7------|
|-0----0-0-0-0-0-0-|-0-0---0-0-0-0-0------|
|------------------|----------------------|


G5
W Q Q Q +Q
| | | | |
/ / / / /

|-3-| |-3-| |-3-| |-3-| |-3-|
H E E E E E E E E E E E E E E E Q
|------------------|-----------------------|
|------------------|-----------------------|
|-9----9-9-9-9-9-9-|-----------------------|
|-7----7-7-7-7-7-7-|-7-7-7-7-7-7-7-7-7--7--|
|-0----0-0-0-0-0-0-|-----------------------|
|------------------|-----------------------|


A5
W +E E E E E E Q
| | | | | | | |
/ / / / / / / /

|-3-| |-3-| |--3--| |--3--| |--3--|
H E E E E E E E E E E E E E E E Q
|------------------|-----------------------------|
|------------------|-----------------------------|
|-9----9-9-9-9-9-9-|--9-9---9-9-9---9-9-9---9-9--|
|-7----7-7-7-7-7-7-|--7-7---7-7-7---7-7-7---7-7--|
|------------------|-----------------------------|
|------------------|-----------------------------|


G5
W Q Q E E Q
| | | | | |
/ / / / / /

|-3-| |-3-| |-3-| |-3-| |--3--| |-3-|
H E E E E E E E E E E E E E E E E E E
|------------------|---------------------------|
|------------------|---------------------------|
|-9----9-9-9-9-9-9-|-9-9-9-9-9-9-9-9---9-9-9-9-|
|-7----7-7-7-7-7-7-|-7-7-7-7-7-7-7-7---7-7-7-7-|
|------------------|---------------------------|
|------------------|---------------------------|


A5 G5
H. Q H +E E Q H. +E E Q Q Q Q
| | | | | | | | | | | | |
/ / / / / / / / / / / / /

Q E E Q Q +W +W +H. Q
|----------------|----------------|---------------|--------------------||
|----------------|----------------|---------------|--------------------||
|-9---9-9-9--/9--|-(9)------------|-(9)-----------|-(9)--------12b14===||
|-7---7-7-7--/7--|-(7)------------|-(7)-----------|-(7)----------------||
|----------------|----------------|---------------|--------------------||
|----------------|----------------|---------------|--------------------||


Guitar Solo
A5 C/D D5 C/D
H. E E Q Q Q Q
| | | | | | |
/ / / / / / /

+Q +Q E E E E Q E +E +Q +Q
|-------------------------|-----------------------------|
|-------------------------|-----------------------------|
|-(12)r=(12)-----------12h|=14--14b16==(14)-(14)--(14)r=|
|-------------14-12h14----|-----------------------------|
|-------------------------|-----------------------------|
|-------------------------|-----------------------------|


A5XII G5X
Q. E +H +E E Q Q Q
| | | | | | | |
/ / / / / / / /

~~~~~~~
+E E E E +Q E E E E E E E E +Q
|---------------------------|------------------------------|
|---------------------------|----12----12------------------|
|-(14)-12h14-12-(12)--------|----12----12-14-14b16==(14)r==|
|---------------------14-12h|=14----12---------------------|
|---------------------------|------------------------------|
|---------------------------|------------------------------|


A5XII
H. Q +E E E E Q Q
| | | | | | | |
/ / / / / / / /

|--3---|
+Q E E +E E Q +H. +E +E E
|-------------------------|------------------------|
|----------------6--------|------------------------|
|-(14)-------------7pb8===|=(7)----------(7)r(7)p5-|
|---------/8-(8)----------|------------------------|
|-------------------------|------------------------|
|-------------------------|------------------------|


G5X
Q. E +Q Q +E E E E Q Q
| | | | | | | | | |
/ / / / / / / / / /

|-3--| |3|
Q Q Q E Q E E S E S E E Q. +E
|-------------------|----------------------------|
|-------------------|----------------------------|
|-7--5--------------|----------------------------|
|------7----5h7-5---|--------5h7-7s9b10=====(9)--|
|-----------------7-|--5h7-----------------------|
|-------------------|----------------------------|


A5XII
H. E E +Q Q E E Q
| | | | | | | |
/ / / / / / / /

|3|
+Q +Q Q E Q E E Q +Q +Q
|--------------------|------------------------|
|--------------------|------------------------|
|--------------------|------------------------|
|-(9)r=(9)--7--5h7---|--5---------------------|
|--------------------|----7-5pb6===(5)r==(5)--|
|--------------------|------------------------|


G5X
Q. E +Q Q +E E Q Q Q
| | | | | | | | |
/ / / / / / / / /

|3| |3| |3| |3| |3| |3|
+E E E Q E Q E Q E Q E Q E Q E E
|----------------------|----------------------|
|----------------------|----------------------|
|------------------7h9-|--7h9---7h9-7h9-9s14--|
|-------5h7----7h9-----|----------------------|
|-(5)-7----------------|----------------------|
|----------------------|----------------------|


A5XII
H. Q +E E E E Q Q
| | | | | | | |
/ / / / / / / /

+W E E E E E E E E
|--------------|-------------------------|
|--------------|-------------------------|
|-(14)---------|-14-14-14-14-14-14-14s16-|
|--------------|-------------------------|
|--------------|-------------------------|
|--------------|-------------------------|


G5X
Q. E +Q Q +E E E E Q Q
| | | | | | | | | |
/ / / / / / / / / /

|---3---| |--3--| |--3--| |3-|
S E S E E E E E E E E E E E E E E Q Q
|----------------------------------------|------------------------|
|----------------------------------------|------------------------|
|-16--16-16-16-17---17-17-17-17-17-17-17-|-19---19-19-19-19-19\---|
|----------------------------------------|------------------------|
|----------------------------------------|------------------------|
|----------------------------------------|------------------------|


A5XII G5X
H. E E +Q Q E E Q Q. E +Q Q +E E Q Q Q
| | | | | | | | | | | | | | | | |
/ / / / / / / / / / / / / / / / /

W +W Q. E +Q Q Q. E +Q Q
|-------------|----------------|------------------|-------------------|
|-------------|----------------|------------------|--3------5-(5)--3--|
|-------------|----------------|-4pb5---4-(4)--4--|-------------------|
|-------------|----------------|------------------|-------------------|
|-0-----------|-(0)------------|------------------|-------------------|
|-------------|----------------|------------------|-------------------|


A5XII
H. Q +E E E E Q Q
| | | | | | | |
/ / / / / / / /

|3| |--3--|
a +Q +Q H +Q E Q Q Q Q
|----------------5-----|-(5)------------------|
|-5b8==(5)r=(5)--5-----|-(5)---3h5---3--------|
|----------------------|---------------4---2\-|
|----------------------|----------------------|
|----------------------|----------------------|
|----------------------|----------------------|


G5X
Q. E +Q Q +E E E E Q Q
| | | | | | | | | |
/ / / / / / / / / /

|3|
W +E E E E Q E Q
|---------------|------------------|
|-0-------------|-(0)--------------|
|-0-------------|-(0)-0h2-0-2--0h2-|
|---------------|------------------|
|---------------|------------------|
|---------------|------------------|


A5XII
H. E E +Q Q E E Q
| | | | | | | |
/ / / / / / / /

|3-| |3| |3|
Q +Q +E Q E Q E E E Q a H
|------------------------|--0----------------|
|-1b2===(1)r=(1)---------|--1---1h3-3s5------|
|----------------2-0-2---|----2--------------|
|------------------------|-------------------|
|------------------------|-------------------|
|------------------------|-------------------|


G5X
Q. E +Q Q +E E Q Q Q
| | | | | | | | |
/ / / / / / / / /

|--3--|
+Q E E Q Q a H Q Q Q
|-----------8-----|-3s=5------5-5---5--|
|-(5)--3h5-----5--|--------------------|
|-----------------|--------------------|
|-----------------|--------------------|
|-----------------|--------------------|
|-----------------|--------------------|


A5XII
H. Q +E E E E Q Q
| | | | | | | |
/ / / / / / / /

|-3--| |--3--| |--3--| |-3-| |-3-|
Q Q Q E E E E E E E E E E E E E E E E
|-5--5-5-5-5-5-5-|--5-5---5-5-5---5-5-5-5-5-5-5-|
|----------------|------------------------------|
|----------------|------------------------------|
|----------------|------------------------------|
|----------------|------------------------------|
|----------------|------------------------------|


G5X
Q. E +Q Q +E E E E Q Q
| | | | | | | | | |
/ / / / / / / / / /

|-3--| |--3--| |-3-| |-3-| |--3--| |---3---| |--3--| |--3--|
E E E E E E E E E E E E E E E E E E E E E E E E
|-5--7-7-7-7---7--7-7-7-8-8-8-|--8-8---8-10-10---10-10-10-10-10-12-12----|
|-----------------------------|------------------------------------------|
|-----------------------------|------------------------------------------|
|-----------------------------|------------------------------------------|
|-----------------------------|------------------------------------------|
|-----------------------------|------------------------------------------|


A5XII
H. E E +Q Q E E Q
| | | | | | | |
/ / / / / / / /

|3-| |--3--|
E Q +Q E E E +E E +E E E E +H
|-12s14-(14)--10h12h14-(14)----|-----------------------------|
|---------------------------13-|-(13)-11\--------------------|
|------------------------------|----------5s12b13==(12)------|
|------------------------------|-----------------------------|
|------------------------------|-----------------------------|
|------------------------------|-----------------------------|


G5X
Q. E +Q Q +E E Q Q Q
| | | | | | | | |
/ / / / / / / / /

|--3--|
+Q Q a +H +H Q Q Q
|---------------------------|-------------------|
|---------------------------|-------------------|
|-(12)r--4---7b7.5==(7)-----|-(7)r------5h7---5-|
|---------------------------|-------------------|
|---------------------------|-------------------|
|---------------------------|-------------------|


A5XII
H. Q +E E E E Q Q
| | | | | | | |
/ / / / / / / /

~~~
|3|
+Q Q E Q Q Q Q Q a +Q
|----------------|-----------------------|
|----------------|-----------------------|
|-(5)---------5--|--5---7---5--5b7==(5)--|
|------7--5h7----|------7---5------------|
|----------------|-----------------------|
|----------------|-----------------------|


G5X
Q. E +Q Q +E E E E Q Q
| | | | | | | | | |
/ / / / / / / / / /

+Q Q Q a +Q +H. +Q
|-------------------------|-------------------|
|-------------------------|-------------------|
|-(5)r-------5--7b9==(7)--|-(7)r=========(7)--|
|-------7----5------------|-------------------|
|-------------------------|-------------------|
|-------------------------|-------------------|


A5XII
H. E E +Q Q E E Q
| | | | | | | |
/ / / / / / / /

Q. a +E +H Q +E +E +Q a +Q
|-------------------------|------------------------------------|
|-5-----------------------|------------------------------------|
|-5----7b9==(7)-(7)r------|--7b8===(7)b9==(7)-(7)r---7b9==(7)--|
|-------------------------|------------------------------------|
|-------------------------|------------------------------------|
|-------------------------|------------------------------------|


G5X
Q. E +Q Q +E E Q Q Q
| | | | | | | | |
/ / / / / / / / /

+Q. a +E +Q a +Q a +H +Q a +Q
|----------------------------------|-------------------------------|
|----------------------------------|-------------------------------|
|-(7)r---7b9==(7)-(7)r--7b9==(7)r--|-7b9==(7)r=====(7)--7b8==(7)r--|
|----------------------------------|-------------------------------|
|----------------------------------|-------------------------------|
|----------------------------------|-------------------------------|


A5XII
H. Q +E E E E Q Q
| | | | | | | |
/ / / / / / / /

|3|
E +Q. +Q E E E E E Q Q +Q
|---------------------|--------------------|
|---------------------|------------5-------|
|-7b9==(7)r==(7)--5h7-|--5---------5--(5)--|
|---------------------|----7-5h7-----------|
|---------------------|--------------------|
|---------------------|--------------------|


G5X
Q. E +Q Q +E E E E Q Q
| | | | | | | | | |
/ / / / / / / / / /

+Q Q E E Q +H Q Q
|------------------|------------------|
|------7----5---5--|-(5)-------5------|
|-(5)--7----5---5--|-(5)-------5------|
|-------------7----|--------------5---|
|------------------|------------------|
|------------------|------------------|


A5XII G5X
H. E E +Q Q E E Q Q. E +Q Q +E E Q Q Q
| | | | | | | | | | | | | | | | |
/ / / / / / / / / / / / / / / / /

|3| |3|
Q. E +Q Q Q Q E Q Q Q. E +Q Q a +H E Q +Q
|-----------------|-----------------|----------------|-------------------------|
|-7----7-(7)--7---|-----------------|-5----5-(5)-----|-------------------------|
|-7----7-(7)--7---|--5--7--5-7---5--|-5----5-(5)--5--|-5b7==(5)r---------------|
|-----------------|-----------------|-5----5-(5)--5--|----------------7-5-(5)--|
|-----------------|-----------------|----------------|-------------------------|
|-----------------|-----------------|----------------|-------------------------|


A5XII G5X
H. Q +E E E E Q Q Q. E +Q Q +E E E E Q Q
| | | | | | | | | | | | | | | | | |
/ / / / / / / / / / / / / / / / / /

|3| |3| |3|
Q. E +Q Q Q H. +H E Q E Q E Q H Q
|----------------|------------------|-------------------|-------------------|
|----------------|--8s==10----------|-(10)--------------|-------------------|
|-7----7-(7)--7--|--7s===9----------|--(9)------7h9-7---|--------7------7---|
|-7----7-(7)--7--|------------------|-----------------9-|--7h9--------------|
|----------------|------------------|-------------------|-------------------|
|----------------|------------------|-------------------|-------------------|


A5XII
H. E E +Q Q E E Q
| | | | | | | |
/ / / / / / / /

|--3--|
a +Q. E +H +Q Q E E E Q
|-------------------------|--------------------|
|-------------------------|--------------------|
|-9b11==(9)r---9-(9)------|-(9)--9--9-9---9-9--|
|-------------------------|--------------------|
|-------------------------|--------------------|
|-------------------------|--------------------|


G5X
Q. E +Q Q +E E Q Q Q
| | | | | | | | |
/ / / / / / / / /

|3-|
Q. E +H +Q E Q +Q Q
|--------------------|-------------------------|
|--------------------|-------------------------|
|-/14----12-(12)-----|-(12)---12-12-(12)--12---|
|--------------------|-------------------------|
|--------------------|-------------------------|
|--------------------|-------------------------|


A5XII
H. Q +E E E E Q Q
| | | | | | | |
/ / / / / / / /

Q. E +E Q E E E E E E E E E
|------------------------|-------------------------|
|------------------------|-------------------------|
|-/16----14-(14)-12------|-------------------------|
|---------------------14-|-12----------------------|
|------------------------|----14-12-12-14-12-10-12-|
|------------------------|-------------------------|


G5X
Q. E +Q Q +E E E E Q Q
| | | | | | | | | |
/ / / / / / / / / /

|--3--|
E E E E E E E E E +E E Q E E E E
|-----------------------------|---------------------------|
|-----------------------------|---------------------------|
|-----------------------------|---------------------------|
|-----------------------------|---------------------------|
|-10-----------10----10-12-10-|-(10)----12---10-12-12-----|
|-----12-10-12----12----------|------12---------------12--|


A5XII
H. E E
| | |
/ / /

E E E +E +E S S E S S
|-----------------------------------------|
|-----------------------------------------|
|-----------------------------------------|
|--------------------------------12----12-|
|-12--12s14b15==(14)-(14)r-12h14----14----|
|-----------------------------------------|


G5X
+Q Q E E Q Q. E +Q Q +E E Q Q Q
| | | | | | | | | | | | | |
/ / / / / / / / / / / / / /

|-3-|
E S S S E. +H +Q E E +E E Q +Q E E E E E E E
|---------------------------|-------------------|---------------------|
|---------------------------|-------------------|---------------------|
|----------9-9b11==(9)r=====|=(9)--7---------8--|-(8)-----------7---7-|
|-14-(0)-9------------------|--------9-(9)-7-0--|-(0)---x-9-7h9---9---|
|---------------------------|-------------------|---------------------|
|---------------------------|-------------------|---------------------|


A5XII G5X
H. Q +E E E E Q Q Q. E +Q Q +E E E E Q Q
| | | | | | | | | | | | | | | | | |
/ / / / / / / / / / / / / / / / / /

TP TP TP TP
E +E +H. +H H W H E +E Q
|---------------------|-----------------|---------------|-------------------|
|---------------------|-----------------|---------------|-------------------|
|-9b11==(9)-(9)-------|-(9)-------9-----|-9-------------|--9-------9r(9)-9--|
|---------------------|-----------------|---------------|----------------7--|
|---------------------|-----------------|---------------|----------------0--|
|---------------------|-----------------|---------------|-------------------|


A5XII G5X
H. E E +Q Q E E Q Q. E +Q Q +E E Q Q Q
| | | | | | | | | | | | | | | | |
/ / / / / / / / / / / / / / / / /

+H. E E +Q Q Q Q +E Q. +H +H E Q.
|--------------|----------------|-------------------|-------------------|
|--------------|----------------|-------------------|-------------------|
|-(9)------9-9-|-(9)--9--9---7--|-(7)-7-----(7)-----|-(7)------/9-9-----|
|-(7)------7-7-|-(7)--7--7---5--|-(5)-5-----(5)-----|-(5)------/7-7-----|
|-(0)------0-0-|-(0)--0--0------|-------------------|-------------------|
|--------------|----------------|-------------------|-------------------|


A5XII G5X
H. Q +E E E E Q Q Q. E +Q Q +E E E E Q Q
| | | | | | | | | | | | | | | | | |
/ / / / / / / / / / / / / / / / / /

+W +Q H Q W +E Q. Q Q
|-------------|-----------------|---------------|------------------|
|-------------|-----------------|---------------|------------------|
|-(9)---------|-(9)---9------9--|-7-------------|-(7)-7------7--7--|
|-(7)---------|-(7)---7------7--|-5-------------|-(5)-5------5--5--|
|-------------|-----------------|---------------|-----0------0--0--|
|-------------|-----------------|---------------|------------------|


A5XII
H. E E +Q Q E E Q
| | | | | | | |
/ / / / / / / /

|---3---|
Q. E +Q E E E Q E E H
|---------------------------|----------------|
|-10----10-(10)--10-10---10-|-10-------------|
|--9-----9--(9)---9--9----9-|--9--5----------|
|--7-----7--(7)---7--7----7-|--7--5-7-5------|
|---------------------------|----------------|
|---------------------------|----------------|


G5X
Q. E +Q Q +E E Q Q Q
| | | | | | | | |
/ / / / / / / / /

+Q Q E E Q +Q Q Q Q
|------------------|----------------|
|------------------|----------------|
|------------------|----------------|
|-(5)--7----5h7-5--|-(5)---5--5--5--|
|------------------|----------------|
|------------------|----------------|


A5XII G5X
H. Q +E E E E Q Q Q. E +Q Q +E E E E Q Q
| | | | | | | | | | | | | | | | | |
/ / / / / / / / / / / / / / / / / /

a W +W +W +W
|--------------|-----------------|----------------|------------------|
|--------------|-----------------|----------------|------------------|
|--------------|-----------------|----------------|------------------|
|-5h7----------|-(7)-------------|-(7)------------|-(7)--------------|
|--------------|-----------------|----------------|------------------|
|--------------|-----------------|----------------|------------------|


A5XII G5X
H. E E +Q Q E E Q Q. E +Q Q +E E Q Q Q
| | | | | | | | | | | | | | | | |
/ / / / / / / / / / / / / / / / /

+W +W +W +W
|----------------|------------------|------------------|------------------|
|----------------|------------------|------------------|------------------|
|----------------|------------------|------------------|------------------|
|-([7])----------|-([7])------------|-([7])------------|-([7])------------|
|----------------|------------------|------------------|------------------|
|----------------|------------------|------------------|------------------|


A5XII G5X
H. Q +E E E E Q Q Q. E +Q Q +E E E E Q Q
| | | | | | | | | | | | | | | | | |
/ / / / / / / / / / / / / / / / / /

+W +W +Q E E E E E E E E Q Q Q
|---------------|-------------------|---------------------|----------------|
|---------------|-------------------|---------------------|----------------|
|---------------|-------------------|---------------------|----------------|
|-([7])---------|-([7])-------------|-([7])--5h7--5h7-5h7-|--5h7-7---7--7--|
|---------------|-------------------|---------------------|----------------|
|---------------|-------------------|---------------------|----------------|


A5XII
H. E E +Q Q E E Q
| | | | | | | |
/ / / / / / / /

a H +Q E E +H. Q
|----------------------|-----------------|
|----------------------|-----------------|
|-7s10-----(10)\--4s13-|-(13)---------5s=|
|----------------------|-----------------|
|----------------------|-----------------|
|----------------------|-----------------|


G5X
Q. E +Q Q +E E Q Q Q
| | | | | | | | |
/ / / / / / / / /

Q. E H +E Q E Q Q
|----------------|------------------------|
|----------------|------------------------|
|-16----8-18-----|-(18)-------7s16--------|
|----------------|------17\---------17\---|
|----------------|------------------------|
|----------------|------------------------|


A5XII G5X
H. Q +E E E E Q Q Q. E +Q Q +E E E E Q Q
| | | | | | | | | | | | | | | | | |
/ / / / / / / / / / / / / / / / / /

H H +W E Q E +H +E E E E E E Q
|-------------|-----------------|----------------|------------------|
|-------------|-----------------|----------------|------------------|
|-------------|-----------------|----------------|------------------|
|-0-----------|-----------------|-5h7--7-(7)-----|-(7)-5h7-5h7-5h7--|
|-------0-----|-(0)-------------|-0--------------|------------------|
|-------------|-----------------|----------------|------------------|


A5XII G5X
H. E E +Q Q E E Q Q. E +Q Q +E E Q Q Q
| | | | | | | | | | | | | | | | |
/ / / / / / / / / / / / / / / / /

E Q E +H +E E E E E E E E Q. E +H +E E E E E E +Q
|-----------------|-------------------|----------------|-----------------------|
|-----------------|-------------------|----------------|-----------------------|
|-----------------|-------------------|----------------|---------5h7-5b6==(5)--|
|-5h7--7-(7)------|-(7)-5h7-5h7-5h7-5h|=7----7-(7)-----|-(7)-5h7---------------|
|-----------------|-------------------|----------------|-----------------------|
|-----------------|-------------------|----------------|-----------------------|


A5XII G5X
H. Q +E E E E Q Q Q. E +Q Q +E E E E Q Q
| | | | | | | | | | | | | | | | | |
/ / / / / / / / / / / / / / / / / /

|--3--| |3-|
+H +H +H Q Q Q Q. E E E E E E E E E +E Q +Q
|----------------|-------------------|-----------------|---------------------|
|----------------|-------------------|-----------------|---------------------|
|-(5)r===(5)-----|-(5)-------5-5---5-|-5-----------5---|---------------------|
|----------------|-------------------|------7--5h7---7-|--5h7-5-3-(3)--------|
|----------------|-------------------|-----------------|--------------3-(3)--|
|----------------|-------------------|-----------------|---------------------|
Добавлено: 21.12.2013
Другие материалы по этой песне:
  • Аккорды и текст

Страница создана 26.04.2012
http://primanota.ru/iggy-pop/1969-chords.htm
Привет, Гость.
Предлагаем пройти революционный курс по гитаре.
Подарок от PrimaNota.Ru, забирай!