PrimaNota.ru - самый крупный в мире бесплатный архив песенных текстов, аккордов, табулатур и нот


Iced Earth - I Died For You - аккорды и текст, таба, бас-таба, видео

Регистрация Запомнить меня
Войти через:  Facebook Google Twitter Vk Yandex Mail.ru

Iced Earth - I Died For You - аккорды и текст, таба, бас-таба, видео

Печатать
Просмотров: 331
Уроки эстрадного вокала в Санкт-Петербурге
Авторы музыки: Jon Schaffer
Авторы текста: Jon Schaffer
I Died For You
Iced Earth
		   I Died For You


                                                            Tom Van Cauwenberghe



     clean electric with maybe some delay effect...
D#||------------------------------------|------------------------------------|
A#||------------------------------------|------------------------------------|
F#||------------------------------------|------------------------------------|
C#||--------5--------5------------------|-----4----5----4-----4--------------|
G#||-----7--------7---------------------|--5---------------5-----------------|
D#||--0--------0------------------------|------------------------------------|



------------------------------------|------------------------------------|
------------------------------------|------------------------------------|
------------------------------------|------------------------------------|
--------5--------5------------------|-----4----5----4-----4--------------|
-----7--------7---------------------|--5---------------5-----------------|
--0--------0------------------------|------------------------------------|


                     I can't believe..                       This isn'T what I...
------------------------------------|------------------------------------|
------------------------------------|------------------------------------|
------------------------------------|------------------------------------|
--------5--------5------------------|-----4----5----4-----4--------------|
-----7--------7---------------------|--5---------------5-----------------|
--0--------0------------------------|------------------------------------|



------------------------------------|------------------------------------|
------------------------------------|------------------------------------|
------------------------------------|------------------------------------|
--------5--------5------------------|-----4----5----4-----4--------------|
-----7--------7---------------------|--5---------------5-----------------|
--0--------0------------------------|------------------------------------|



------------------------------------|------------------------------------|
------------------------------------|------------------------------------|
------------------------------------|------------------------------------|
--------5--------5------------------|-----4----5----4-----4--------------|
-----7--------7---------------------|--5---------------5-----------------|
--0--------0------------------------|------------------------------------|



------------------------------------|------------------------------------|
------------------------------------|------------------------------------|
------------------------------------|------------------------------------|
--------5--------5------------------|-----4----5----4-----4--------------|
-----7--------7---------------------|--5---------------5-----------------|
--0--------0------------------------|------------------------------------|


  Distortion part..
-------------------------------------------|
-------------------------------------------|
-------------------------------------------|
--9--------9----7--9------------------9----|
--7--7-7-7-7----5--7------------------7----|
-------------------------------------------|



------------------------------------------|
------------------------------------------|
------------------------------------------|
--9--------9----7--7----------------------|
--7--7-7-7-7----5--5----------------------|
------------------------------------------|



-------------------------------------------|
-------------------------------------------|
-------------------------------------------|
--9--------9----7--9------------------9----|
--7--7-7-7-7----5--7------------------7----|
-------------------------------------------|



------------------------------------------|
------------------------------------------|
------------------------------------------|
--9--------9----7--7----------------------|
--7--7-7-7-7----5--5----------------------|
------------------------------------------|



-------------------------------------------|
-------------------------------------------|
-------------------------------------------|
--9--------9----7--9------------------9----|
--7--7-7-7-7----5--7------------------7----|
-------------------------------------------|



------------------------------------------|
------------------------------------------|
------------------------------------------|
--9--------9----7--7----------------------|
--7--7-7-7-7----5--5----------------------|
------------------------------------------|



-------------------------------------------|
-------------------------------------------|
-------------------------------------------|
--9--------9----7--9------------------9----|
--7--7-7-7-7----5--7------------------7----|
-------------------------------------------|



------------------------------------------|------------------------------------|
------------------------------------------|------------------------------------|
------------------------------------------|------------------------------------|
--9--------9----7--7----------------------|--------5--------5------------------|
--7--7-7-7-7----5--5----------------------|-----7--------7---------------------|
------------------------------------------|--0--------0------------------------|



------------------------------------|------------------------------------|
------------------------------------|------------------------------------|
------------------------------------|------------------------------------|
-----4----5----4-----4--------------|--------5--------5------------------|
--5---------------5-----------------|-----7--------7---------------------|
------------------------------------|--0--------0------------------------|



------------------------------------|------------------------------------|
------------------------------------|------------------------------------|
------------------------------------|------------------------------------|
-----4----5----4-----4--------------|--------5--------5------------------|
--5---------------5-----------------|-----7--------7---------------------|
------------------------------------|--0--------0------------------------|



------------------------------------|------------------------------------|
------------------------------------|------------------------------------|
------------------------------------|------------------------------------|
-----4----5----4-----4--------------|--------5--------5------------------|
--5---------------5-----------------|-----7--------7---------------------|
------------------------------------|--0--------0------------------------|



------------------------------------|
------------------------------------|
------------------------------------|
-----4----5----4-----4--------------|
--5---------------5-----------------|
------------------------------------|



-------------------------------------------|
-------------------------------------------|
-------------------------------------------|
--9--------9----7--9------------------9----|
--7--7-7-7-7----5--7------------------7----|
-------------------------------------------|



------------------------------------------|
------------------------------------------|
------------------------------------------|
--9--------9----7--7----------------------|
--7--7-7-7-7----5--5----------------------|
------------------------------------------|



-------------------------------------------|
-------------------------------------------|
-------------------------------------------|
--9--------9----7--9------------------9----|
--7--7-7-7-7----5--7------------------7----|
-------------------------------------------|



------------------------------------------|
------------------------------------------|
------------------------------------------|
--9--------9----7--7----------------------|
--7--7-7-7-7----5--5----------------------|
-----------------------------------------     
Добавлено: 10.10.2013
Другие материалы по этой песне:

Страница создана 01.03.2012
http://primanota.ru/iced-earth/i-died-for-you-chords.htm
Привет, Гость.
Предлагаем пройти революционный курс по гитаре.
Подарок от PrimaNota.Ru, забирай!