PrimaNota.ru - самый крупный в мире бесплатный архив песенных текстов, аккордов, табулатур и нот


Iced Earth - God Of Thunder - текст песни, таба, видео

Регистрация Запомнить меня
Войти через:  Facebook Google Twitter Vk Yandex Mail.ru

Iced Earth - God Of Thunder - текст песни, таба, видео

Печатать
Просмотров: 133
Уроки эстрадного вокала в Санкт-Петербурге
Авторы музыки: Paul Stanley
Авторы текста: Paul Stanley
-------------------------------------------------------------------------------
                                                God Of Thunder - Iced Earth
----------------------------------------------------------------------------
---

Tabbed by: Lance Myhre & Kyle Turcotte

Tuning: Standard

e|---------------------------------------------------------------------------|
B|---------------------------------------------------------------------------|
G|---------------------------------------------------------------------------|
D|---------8----6---8------------8----6---8---11------------8----6---8-------|
A|---------6----4---6------------6----4---6----9------------6----4---6-------|
E|-0---0-----------------0---0----------------------0---0--------------------|
  .   .                 .   .                      .   .

e|-----------------------------------------------------------------------------|
B|-----------------------------------------------------------------------------|
G|--6--------6---8---8/9\8---6/8-----------------------------------------------|
D|--4----8---4---6---6/7\6---4/6-----------------------------------------------|
A|-------6---------------------------------------------------------------------|
E|-----------------------------------------------------------------------------|

************************************

| /   slide up
| \   slide down
| .   palm mute

************************************
Добавлено: 29.05.2012
Другие материалы по этой песне:

Страница создана 22.03.2012
http://primanota.ru/iced-earth/god-of-thunder-chords.htm
Привет, Гость.
Предлагаем пройти революционный курс по гитаре.
Подарок от PrimaNota.Ru, забирай!