PrimaNota.ru - самый крупный в мире бесплатный архив песенных текстов, аккордов, табулатур и нот


Iced Earth - Days Of Rage - таба, видео

Регистрация Запомнить меня
Войти через:  Facebook Google Twitter Vk Yandex Mail.ru

Iced Earth - Days Of Rage - таба, видео

Печатать
Просмотров: 108
Уроки эстрадного вокала в Санкт-Петербурге
Days of Rage - half-step down
============
transcription: Myke Havoc
plannineproductions@hotmail.com

 verse:
|--------------------------------------------------------------------|
|--------------------------------------------------------------------|
|--------------------------------------------------------------------|
|-2---------------------3-3-3-[3x]-2-------------------6-7-6---------|
|-2---------------------3-3-3------2-------7-8-----7-8-------8-9-5-7-|
|-0-000-000-000-000-000-1-1-1------0-0-0-0-----0-0-------------------|
    *** *** *** *** ***              * * *     * * ^ ^  various  ^ ^
                                                     pinched notes
 alt verse:
|----------------------------------------------------------------------|
|----------------------------------------------------------------------|
|----------------------------------------------------------------------|
|-(2)---------------------3-3-3-[3x]-2-------------------6-7-6---------|
|-(2)---------------------3-3-3------2-------7-8-----7-8-------8-9-5-7-|
|-(0)-000-000-000-000-000-1-1-1------0-0-0-0-----0-0-------------------|
      *** *** *** *** ***              * * *     * * ^ ^  various  ^ ^
   *chord in parens not played first time              pinched notes

 chorus:
|-----------------------|
|-----------------------|
|-----------------------|
|-2---2---2---2---2---2-|
|-2---2---2---2---2---2-|
|-0-0-0-0-0---0-0-0-0-0-|
  * * * * *   * * * * *


verse 
alt verse
alt verse (w/out last note)
chorus      [4x]
verse 
alt verse (w/out last note)
chorus      [4x]
slide
E F G E G F [4x]
verse 
alt verse (w/out last note)
chorus     [12x]
Добавлено: 01.05.2012
Другие материалы по этой песне:

Страница создана 01.05.2012
http://primanota.ru/iced-earth/days-of-rage-chords.htm
Привет, Гость.
Предлагаем пройти революционный курс по гитаре.
Подарок от PrimaNota.Ru, забирай!