PrimaNota.ru - самый крупный в мире бесплатный архив песенных текстов, аккордов, табулатур и нот


Hypocrisy - Penetrailia - таба, видео

Регистрация Запомнить меня
Войти через:  Facebook Google Twitter Vk Yandex Mail.ru

Hypocrisy - Penetrailia - таба, видео

Печатать
Просмотров: 115
                            HYPOCRISY - PENETRAILIA
                          From the Album - PENETRAILIA
                         Copyright: NUCLEAR BLAST 1990
                           Version 1.0 - DEC 28, 2001

Transcribed by: James Williams (Inverted)

For Questions, Comments, Newest Version, or Corrections contact
Inverted: at Inverted_one@hotmail.com

Check Out Death8699.com Metaltabs.com or dsrmusic.com for More
Transcriptions:http://www.Death8699.com http://www.Metaltabs.com


 .  - palm mute           /  - slide up to
 \  - slide down to       ~  - vibrato
 h  - hammer on           b  - Bend
 p  - pull off            Suffixes for bend
 t  - tap                 f  - full bend    h - half bend
 ph - pinched harmonic    q  - quarter bend t - tap bend
 *  - see comment         ^  - Hold bend    r release bend
 x  - Stuccatto           ~  - vibrato bend
 ,  - slight palm mute    () - ghost note, sustained note
 "  - tremolo note        <> - Trill

Tuning: "C"F"A#"D#"G"C"

PENETRAILIA...

Intro... (Play clean with Chorus and Reverb effects.)
|-------------------------------------------------------------------------
|-----------0-----------------0-----------------0-----------------0-------
|--------2-----2-----------2-----2-----------2-----2-----------2-----2----
|-----2-----------2-----2-----------2-----2-----------2-----2-----------2-
|--0-----------------3-----------------------------------1----------------
|--------------------------------------3----------------------------------

  -------------------------------------------------------------------------|
  ----------0-----------------0-----------------0-----------------0--------|
  -------2-----2-----------2-----2-----------2-----2-----------2-----2-----|
  ----2-----------2-----2-----------2-----2-----------2-----2-----------2--|
  -------------------------------------3-----------------1-----------------|
  -0-----------------1-----------------------------------------------------|

Riff 1
|-------------------------------|
|-------------------------------|
|-------------------------------|
|--9-10--8-9--------------------|
|--7--8--6-7--------------------|
|-------------0000000000000000--|

Riff 2
|--------------------------------------------|
|--------------------------------------------|
|--------------------------------------------|
|------------------7""-------10"--9""--------|
|--7""--9""--10""-------7""------------10""--|
|--------------------------------------------|

Riff 3
|------------------------------------------------|
|------------------------------------------------|
|------------------------------------------------|
|--9--8--10--9------------9--8--10--9------------|
|--7--6---8--7------------7--6---8--7------------|
|---------------00000000---------------66666666--|

Fill 1
||---------------||
||---------------||
||---------------||
||--2----3x--3x--||
||--2----3x--3x--||
||--0----1x--1x--||

Riff 4-A
|--------------------------------------|
|--------------------------------------|
|--------------------------------------|
|--2------------3---3--2------------5--|
|--2------------3---3--2------------3--|
|--0------------1---1--0---------------|

Riff 4-B (All down strokes all palm puted)
|---------------------------------------------------------
|---------------------------------------------------------
|---------------------------------------------------------
|---------------------------------------------------------
|--2-2-2--2-2-2--2-2-2--2-2-2--2-2-2--2-2-2--2-2-2--3-3-3-
|--0-0-0--0-0-0--0-0-0--0-0-0--0-0-0--0-0-0--0-0-0--1-1-1-
pm . . .  . . .  . . .  . . .  . . .  . . .  . . .  . . .

  ---------------------------------------------------------|
  ---------------------------------------------------------|
  ---------------------------------------------------------|
  ---------------------------------------------------------|
  -2-2-2--2-2-2--2-2-2--2-2-2--2-2-2--2-2-2--2-2-2--3-3-3--|
  -0-0-0--0-0-0--0-0-0--0-0-0--0-0-0--0-0-0--0-0-0--1-1-1--|
   . . .  . . .  . . .  . . .  . . .  . . .  . . .  . . .

Riff 4-C
|----------------------------------------|
|----------------------------------------|
|----------------------------------------|
|--3---3--2----------3---3--2----5-------|
|--3---3--2----------3---3--2----3-------|
|--1---1--0----------1---1--0----3-------|

Note* For lead 1 one guitar plays through as normal; the
      other guitar tromolo picks the notes.

Lead 1
|-----------------------------------------------------------------
|-----------------------------------------------------------------
|-----------------------------------------------------------------
|-----------------------------------------------------------------
|--7------10-------7------10-------7------10-------7------10------
|----10-9----9-10----10-9----9-10----10-9----9-10----10-9----9-10-

  -------------------------------------------------------------|
  -------------------------------------------------------------|
  -------------------------------------------------------------|
  --------7--------------7--------------7-------7------7-------|
  -7--------------7--------------7-----------------------------|
  ---10-9---9-10----10-9---9-10----10-9---9-10----10-9---9-10--|

Riff 5 (Optional riff off the "Ten Years" version)
|------------------------------------------------------|
|------------------------------------------------------|
|------------------------------------------------------|
|--2------5-------------3--------------------5------3--|
|--0------3------5------1------2------3------3------1--|
|----------------3-------------0------1----------------|

 *Listen to the song for the song structure.

 Check out my other tabs by Hypocrisy, Grave, Obituary and
Six Feet Under.
Добавлено: 03.03.2012
Другие материалы по этой песне:
  • Аккорды и текст

Страница создана 03.03.2012
http://primanota.ru/hypocrisy/penetrailia-chords.htm
Привет, Гость.
Предлагаем пройти революционный курс по гитаре.
Подарок от PrimaNota.Ru, забирай!