PrimaNota.ru - самый крупный в мире бесплатный архив песенных текстов, аккордов, табулатур и нот


Hypocrisy - Black Magic - аккорды и текст, таба, видео

Регистрация Запомнить меня
Войти через:  Facebook Google Twitter Vk Yandex Mail.ru

Hypocrisy - Black Magic - аккорды и текст, таба, видео

Печатать
Просмотров: 154
Авторы музыки: Kerry King, Jeff Hanneman
Авторы текста: Kerry King
Black Magic
Hypocrisy
                HYPOCRISY - BLACK MAGIC
                From the Album INFERIOR DEVOTIES EP
                          also SLATANIC SLAUGHTER vol. 1

                     Version 1.0 - February 97
                       
Transcribed by: AJMB (toti@caleida.pt)

Check out AJMB's web page 
Check Out 's Web Page, With More Transcriptions On It:
               

join the black/death tab mailing list by emailing 

Tune down to C# (1.5 steps down)

INTRO(slowly fade this in by taking your hand off the palm mute)
|------------------------------------|
|------------------------------------|
|------------------------------------|
|------------------------------------|
|------------------------------------|
|--00000000000000000000000000000000--|
   ................................

RIFF A
|-------------------------------------|
|-------------------------------------|
|-------------------------------------|
|-------------------------------------|
|------7-----7h8-----7-8-10-8----8-7--|
|--0-0---0-0-----0-0----------10------|

Repeat the above Riff twice

RIFF A.1
|--------------------------------------|
|--------------------------------------|
|--------------------------------------|
|------ph------------------------------|
|------7~-----7h8-----7-8-10-8----8-7--|
|--0-0----0-0-----0-0----------10------|

Play Riff A again

Play Twice
|--------------------|
|--------------------|
|--------------------|
|--9---9-10-9---5-7--|
|--7---7-8--7---3-5--|
|--------------------|

Play Twice
|--------------------|
|--------------------|
|--------------------|
|--9---9-10-9---5-7--|
|--7---7-8--7---3-5--|
|--7---7-8--7---3-5--|
                       _____________________  _________________
RIFF B                | 1.    | 2.
|----------------------------------------------------|------------------|
|----------------------------------------------------|------------------|
|----------------------------------------------------|------------------|
|--9----------9-9/10-9----------12-11-10-9-----------|------------------|
|--7----------7-7/8 -7----------10-9 -8 -7-----------|-5-4-3-2----------|
|----00000000----------00000000------------00000000--|-3-2-1-0-00000000-|

Play Riff B twice
                       _____________________  _________________
RIFF C                | 1.    | 2.
|----------------------------------------------------|------------------|
|----------------------------------------------------|------------------|
|----------------------------------------------------|------------------|
|--9----------9-9/10-9----------12-11-10-9-----------|------------------|
|--7----------7-7/8 -7----------10-9 -8 -7-----------|-5-4-3------------|
|----00000000----------00000000------------00000000--|-3-2-1------------|

RIFF D
|---------------------------------------|
|---------------------------------------|
|---------------------------------------|
|---------------------------------------|
|--77777777-99999999-44444444-55555555--|
|--55555555-77777777-22222222-33333333--|

Play Riff B
Play Riff C
Play Riff D
Play Riff C

Play Four Times
|--------------------|
|--------------------|
|-----------7--5--4--|
|-----------7--5--4--|
|--00000000----------|
|--------------------|

Play Riff A.1 four times

RIFF E
|--------------|
|--------------|
|--------------|
|--4--3--------|
|--2--1--2--3--|
|--------0--1--|

Play Riff E a total of two times

Play Twice
|----------------------------------|
|----------------------------------|
|----------------------------------|
|-----------------2222222233333333-|
|-2222222211111111-----------------|
|----------------------------------|

Play 4 times
|----------------------------------------------------------------|
|----------------------------------------------------------------|
|----------------------------------------------------------------|
|--------------------------9--10-------------------------9/10-10-|
|--------------------------7--8--------------------------7/8--8--|
|-0-000-000-000-000-000-00--------000-000-000-000-000-00---------|

Play Riff B
Play Riff C
Play Riff E twice

|-------------------------------------|
|-------------------------------------|
|--------------------------tremolo----|
|--9-9-9-9-9-9-9-9-9-10-9-12-the---9--|
|--7-7-7-7-7-7-7-7-7-8 -7-10-hell--7--|
|---------------------------out of----|
                     G5

Check Out 's Web Page, With More Transcriptions On It:
               

join the black/death tab mailing list by emailing 
Добавлено: 20.11.2013
Другие материалы по этой песне:
  • Аккорды и текст

Страница создана 02.04.2012
http://primanota.ru/hypocrisy/black-magic-chords.htm
Привет, Гость.
Предлагаем пройти революционный курс по гитаре.
Подарок от PrimaNota.Ru, забирай!