PrimaNota.ru - самый крупный в мире бесплатный архив песенных текстов, аккордов, табулатур и нот


Howard Shore - The Host Of Eldar - таба, видео

Регистрация Запомнить меня
Войти через:  Facebook Google Twitter Vk Yandex Mail.ru

Howard Shore - The Host Of Eldar - таба, видео

Печатать
Просмотров: 179
Уроки эстрадного вокала в Санкт-Петербурге
-------------------------------------------------------------------------------
      The Host of Eldar (The Elves arrive at Helm's Deep) - Howard Shore
-------------------------------------------------------------------------------
Tabbed by:
E-mail:

Tuning: standard

e|---------------------------------------------------------------------------|
B|---------------------------------------------------------------------------|
G|---------------------------------------------------------------------------|
D|---3----1---3---4---3---1--------------------------------------------------|
A|----------------------------4---6------------------------------------------|
E|------------------------------------8--------------------------------------|

e|---------------------------------------------------------------------------|
B|---------------------------------------------------------------------------|
G|---------------------------------------------------------------------------|
D|---------------------------7-----------------------------------------------|
A|---8---6---8---9---8---9---------------------------------------------------|
E|---------------------------------------------------------------------------|

e|---------------------------------------------------------------------------|
B|---------------------------------------------------------------------------|
G|---------------------------------------------------------------------------|
D|--------------------------------------------------------2------------------|
A|----------------------------------------3---4---3---4----------------------|
E|---8---9---8---6---4---6---3-----------------------------------------------|



The Elves Arrive At Helms Deep

************************************

| /   slide up
| \   slide down
| h   hammer-on
| p   pull-off
| ~   vibrato
| +   harmonic
| x   Mute note
| b   Bend
| pb  Pre-bend
| br  Bend release
| pbr Pre-bend release
| brb Bend release bend

************************************
Добавлено: 10.06.2016
Другие материалы по этой песне:
  • Аккорды и текст

Страница создана 10.06.2016
http://primanota.ru/howard-shore/host-of-eldar-chords.htm
Привет, Гость.
Предлагаем пройти революционный курс по гитаре.
Подарок от PrimaNota.Ru, забирай!