PrimaNota.ru - самый крупный в мире бесплатный архив песенных текстов, аккордов, табулатур и нот


Howard Shore - Laketown Theme - таба, видео

Регистрация Запомнить меня
Войти через:  Facebook Google Twitter Vk Yandex Mail.ru

Howard Shore - Laketown Theme - таба, видео

Печатать
Просмотров: 222
----------------------------------------------------------------------------|
----------------------------------------------------------------------------|
-------------9--9--9-----7--7--7----5--5--5--4------------------------------|
---7--7--7------------------------------------------------------------------|
----------------------------------------------------------------------------|
----------------------------------------------------------------------------|

------------------------------------------------------------------------------|
------------------------------------------------------------------------------|
---4-4------9--9--9-----7--7--5-----------------------------------------------|
-------7----------------------------------------------------------------------|
------------------------------------------------------------------------------|
------------------------------------------------------------------------------|

------------------------------------------------------------------------------|
------------------------------------------------------------------------------|
-------------9--9--9----7--7--7----5--5--5--4------4-----4--9----4--5---------|
--7--7--7---------------------------------------------7-----------------------|
------------------------------------------------------------------------------|
------------------------------------------------------------------------------|

I hope you enjoy it:)
Добавлено: 20.03.2015
Вам также может быть интересно:
Другие материалы по этой песне:
  • Аккорды и текст

Страница создана 20.03.2015
http://primanota.ru/howard-shore/laketown-theme-chords.htm
Привет, Гость.
Предлагаем пройти революционный курс по гитаре.
Подарок от PrimaNota.Ru, забирай!