PrimaNota.ru - самый крупный в мире бесплатный архив песенных текстов, аккордов, табулатур и нот


Hot Water Music - Drown In It - бас-таба, видео

Регистрация Запомнить меня
Войти через:  Facebook Google Twitter Vk Yandex Mail.ru

Hot Water Music - Drown In It - бас-таба, видео

Печатать
Просмотров: 67
Уроки эстрадного вокала в Санкт-Петербурге
Авторы музыки: Jason Black, George Rebelo, Chuck Ragan, Chris Wollard
Авторы текста: Jason Black, George Rebelo, Chuck Ragan, Chris Wollard
-------------------------------------------------------------------------------
                             Hot Water Music - Drown in It
-------------------------------------------------------------------------------

Tuning: Standard

Intro (at 0:23)

G|---------------------------------------------------------------------------|
D|---------------------------------------------------------------------------|
A|---------------------------------------------------------------5--5--5--5--|
E|-0~~--------------------------------0~~------------------------------------|

Chorus x2

G|---------------------------------------------------------|
D|---------------------------------------------------------|
A|----------------5--5--5--5-----------------/10--9--7--5--|
E|0-0-0-0-0-0-0-0------------3-3-3-3-3-3-3-3---------------|

Verse

G|--------------------------------------------------------------------------------------------|
D|-------------------------------------------------------------------------------------5p4-0--|
A|------------------------------------------------------------------------------------------0-| x3
E|0x12-2-2-2-3-3-3-3-3-3-3-3-3-3-3-3-3-3-3-3-0x12-2-2-2-3-3-3-3-3-3-3-3-5-5-5-5-5-5-5-5-------|

G|---------------------------------------------------------------------------------------|
D|---------------------------------------------------------------------------------------|
A|------------------------------------------------------------------------5--5--5--5--5--|
E|0x12-2-2-2-3-3-3-3-3-3-3-3-3-3-3-3-3-3-3-3-0x12-2-2-2-3-3-3-3-3-3-3-3-3----------------|

Chorus x4

G|---------------------------------------------------------|
D|---------------------------------------------------------|
A|----------------5--5--5--5-----------------/10--9--7--5--|
E|0-0-0-0-0-0-0-0------------3-3-3-3-3-3-3-3---------------|

Bridge x2

G|-------------------------------------------------------------------------------------------|
D|-------------------------------------------------------------------------------------------|
A|7x16-5x16-/10-10-10-10-10-10-10-10-9-9-9-9-9-9-9-9-7-7-9-9-10-10-12-12-10-10-9-9-10-10-5-5-|
E|-------------------------------------------------------------------------------------------|

Verse

G|--------------------------------------------------------------------------|
D|--------------------------------------------------------------------------|
A|7x16-5x16-------------------------------------------------------------5-5-|
E|----------3-3-3-3-3-3-3-3-2-2-2-2-2-2-2-2-0-0-2-2-3-3-5-5-3-3-2-2-3-3-----|

G|----------------------------------------------------------------------|
D|----------------------------------------------------------------------|
A|7x16-5x16-------------------------------------------------5--5--5--5--|
E|----------3-3-3-3-3-3-3-3-2-2-2-2-2-2-2-2-0-0-2-2-3-3-5-5-------------|

Chorus x4

G|---------------------------------------------------------|
D|---------------------------------------------------------|
A|----------------5--5--5--5-----------------/10--9--7--5--|
E|0-0-0-0-0-0-0-0------------3-3-3-3-3-3-3-3---------------|


G|---------------|
D|---------------|
A|---------------|
E|0~~------------|

| /  slide up
| p  pull-off
===============================================================================
Добавлено: 06.09.2015
Вам также может быть интересно:
Другие материалы по этой песне:
  • Аккорды и текст

Страница создана 06.09.2015
http://primanota.ru/hot-water-music/drown-in-it-chords.htm
Привет, Гость.
Предлагаем пройти революционный курс по гитаре.
Подарок от PrimaNota.Ru, забирай!