PrimaNota.ru - самый крупный в мире бесплатный архив песенных текстов, аккордов, табулатур и нот


Hot Water Music - No End Left In Sight - бас-таба, видео

Регистрация Запомнить меня
Войти через:  Facebook Google Twitter Vk Yandex Mail.ru

Hot Water Music - No End Left In Sight - бас-таба, видео

Печатать
Просмотров: 27
-------------------------------------------------------------------------------
                             Hot Water Music - No End Left In Sight
-------------------------------------------------------------------------------

Tuning: Half Step Down

Intro Fill

Gb|--------------|
Db|-9p75h754h54--|
Ab|------------5-|
Eb|--------------|

Intro

Gb|---------------------------------|
Db|---------5------------------5----|
Ab|-7--5-7----7--5-5-5-7--5-7----7--| then Intro Fill
Eb|---------------------------------|

Gb|-----------------------------------|
Db|-------------------------------5---|
Ab|----------------10-9-5-7--5-7----7-| then Intro Fill
Eb|-8--7-8--10-8----------------------|

Verse

Gb|-----------------------------------------------------------------------------------|
Db|-----------------------------------------------------------------------------------|
Ab|-7--5-7--5-7--10-9-5-7--5-7--5-7--10-9-7-3--2-3--5-3--/10-9-5-7--5-7--5-7--10-9-7--|
Eb|-----------------------------------------------------------------------------------|

Chorus

Gb|------------------------------------------------------------------------|
Db|------------------------------------------------------------------------|
Ab|---------------5-5-5-7--7--7-10-9-7-5--5-5-----------------5--5-5-5-5-6-|
Eb|-5--3-5--7-5-------------------------------3--3--5--5-5-5---------------|

Pre-Verse

Gb|----------------------------------------------------------------|
Db|---------------5---------------------------5------5h7--5h7--5h7-|
Ab|-7-7-7-5-7-7-7---7-7-7-5-5-6-7-7-7-5-7-7-7---7-7-7----7----7----|
Eb|----------------------------------------------------------------|

Verse

Gb|--------------------------------------------------------------------------------------|
Db|--------------------------------------------------------------------------------------|
Ab|---------------------------5---------------------------5-3-3-3-2-3-3-3-5-3-3-3-----5--|
Eb|-0-0-0-2-0-0-0-2-0-0-0-3-2---0-0-0-2-0-0-0-2-0-0-0-3-2-------------------------3-2----|

Gb|-----------------------------|
Db|-----------------------------|
Ab|---------------------------5-|
Eb|-0-0-0-2-0-0-0-2-0-0-0-3-2---|

Chorus

Gb|---------------------------------------------------------------------------------------------------|
Db|---------------------------------------------------------------------------------------------------| x2
Ab|---------------5-5-5-7--7--7-10-9-7-5--5-5-----------------5--5-5-5-5-6--7-7-7-7-7-7---------------|
Eb|-5--3-5--7-5-------------------------------3--3--5--5-5-5-----------------------------5-5-5-5-5-5-5|


Solo

Gb|------------------------------------------------------------------------|
Db|-----------------7-5----------------------------------------------------|
Ab|---------------5-----7--7--7-10-9-7-5--5-5-----------------5--5-5-5-5-6-|
Eb|-5--3-5--7-5-------------------------------3--3--5--5-5-5---------------|

Ending

Gb|---------------------------------------------------------|
Db|---------------5---------------------------5-------------|
Ab|-7-7-7-5-7-7-7---7-7-7-5-5-6-7-7-7-5-7-7-7---7-7-7-5-5-6-|
Eb|---------------------------------------------------------|

Gb|-----------------|
Db|-----------------|
Ab|-----------------|
Eb|-0---------------|


| /  slide up
| h  hammer-on
| p  pull-off
===============================================================================
Добавлено: 06.09.2015
Другие материалы по этой песне:
  • Аккорды и текст

Страница создана 06.09.2015
http://primanota.ru/hot-water-music/no-end-left-in-sight-chords.htm
Привет, Гость.
Предлагаем пройти революционный курс по гитаре.
Подарок от PrimaNota.Ru, забирай!