PrimaNota.ru - самый крупный в мире бесплатный архив песенных текстов, аккордов, табулатур и нот


Hollywood Undead - My Black Dahlia - текст песни, таба, видео

Регистрация Запомнить меня
Войти через:  Facebook Google Twitter Vk Yandex Mail.ru

Hollywood Undead - My Black Dahlia - текст песни, таба, видео

Печатать
Просмотров: 511
This can be done with one guitar. use your thumb for guitar 1 and use your index 
finger for guitar two. 

any questions, comments, suggestions, or corrections just email me. i'll be happy to reply!

EriJasOro@aol.com

Guitar 1
e -----------------------------------------------------------------|
b -----------------------------------------------------------------|
g -----------------------------------------------------------------|
d -----------------------------------------------------------------|
a -8-8-8-8-8-8-8-8-6-6-6-6-6-6-6-6-4-4-4-4-4-4-4-4-3-3-3-3-3-3-3-3-|
e -----------------------------------------------------------------|

Guitar 2
e ----------------------------------------------------------------|
b ----------------------------------------------------------------|
g -10~-------------8~--------------7~-------------5~--------------|
d ----------------------------------------------------------------|
a ----------------------------------------------------------------|
e ----------------------------------------------------------------|

try Bend the string up and down


Guitar 1
e -----------------------------------------------------------------|
b -----------------------------------------------------------------|
g -----------------------------------------------------------------|
d -----------------------------------------------------------------|
a -8-8-8-8-8-8-8-8-6-6-6-6-6-6-6-6-4-4-4-4-4-4-4-4-3-3-3-3-3-3-3-3-|
e -----------------------------------------------------------------|

Guitar 2
e ----------------------------------------------------------------|
b ----------------------------------------------------------------|
g -10~-------------8~--------------7~-------------5~------8~------|
d ----------------------------------------------------------------|
a ----------------------------------------------------------------|
e ----------------------------------------------------------------|


Добавлено: 04.08.2013
Другие материалы по этой песне:

Страница создана 02.03.2012
http://primanota.ru/hollywood-undead/my-black-dahlia-chords.htm
Привет, Гость.
Предлагаем пройти революционный курс по гитаре.
Подарок от PrimaNota.Ru, забирай!