PrimaNota.ru - самый крупный в мире бесплатный архив песенных текстов, аккордов, табулатур и нот


Hollywood Undead - The Loss - текст песни, бас-таба, видео

Регистрация Запомнить меня
Войти через:  Facebook Google Twitter Vk Yandex Mail.ru

Hollywood Undead - The Loss - текст песни, бас-таба, видео

Печатать
Просмотров: 535
Уроки эстрадного вокала в Санкт-Петербурге
**PLEASE NOTE**
It took me a good few hours to think of the tab then to write it down.. please take into 
I did not copy this tab. I made this one by myself. Please don't copy & paste this onto 
site without my permission.

Also, I play this song in Drop D but if you wanna play in E, it sounds good also. But 
recommend drop D.

Lastly, I tabbed the verse & bridge with faster notation to make the song interesting to 
if you want to play single notes, do so. It'll sound just as good. Otherwise, Enjoy!

Intro (0:00 - 0:24)
G|----------------|
D|----------------|
A|----------------|
D|-5~--8~--1~--0~-| x4

"Sick with myself.." (0:24 - 0:50)
G|-----------------------------------------------------------------|
D|-----------------------------------------------------------------|
A|-----------------------------------------------------------------|
D|-5-5-5-5-5-5-5-5-1-1-1-1-1-1-1-1-3-3-3-3-3-3-3-3-0-0-0-0-0-0-0-0-|

-----------------------------------------------------------------|
-----------------------------------------------------------------|
-----------------------------------------------------------------|
-5-5-5-5-5-5-5-5-8-8-8-8-8-8-8-8-1-1-1-1-1-1-1-1-0-0-0-0-0-0-0-0-|

Chorus (0:51 - 1:15)
"I dont' know why..."
G|--------------------|
D|--------------------|
A|--------------------|
D|-5~--1~--3~--0~-----|
"I know that my minds near..."
G|--------------------|
D|--------------------|
A|--------------------|
D|-5~--8~--1~--0~-----|

"Have you ever met a.." (1:16 - 1:41)
G|-----------------------------------------------------------------|
D|-----------------------------------------------------------------|
A|-----------------------------------------------------------------|
D|-5-5-5-5-5-5-5-5-1-1-1-1-1-1-1-1-3-3-3-3-3-3-3-3-0-0-0-0-0-0-0-0-|

-----------------------------------------------------------------|
-----------------------------------------------------------------|
-----------------------------------------------------------------|
-5-5-5-5-5-5-5-5-8-8-8-8-8-8-8-8-1-1-1-1-1-1-1-1-0-0-0-0-0-0-0-0-|

Second Chorus (1:42 - 2:07)
"I dont' know why..."
G|--------------------|
D|--------------------|
A|--------------------|
D|-5~--1~--3~--0~-----|
"I know that my minds near..."
G|--------------------|
D|--------------------|
A|--------------------|
D|-5~--8~--1~--0~-----|

Bridge (2:08 - 2:32)
G|---------------------------------|
D|---------------------------------|
A|---------------------------------|
D|-5-5-5-5-5-5-5-5-8-8-8-8-8-8-8-8-| x3

G|------------------------------------|
D|------------------------------------|
A|------------------------------------|
D|-5-5-5-5-5-5-5-5-8-8-8-8-10-10--13\-|

Last Chorus (2:33 - 2:58)
"I dont' know why..."
G|--------------------|
D|--------------------|
A|--------------------|
D|-5~--1~--3~--0~-----|
"I know that my minds near..."
G|--------------------|
D|--------------------|
A|--------------------|
D|-5~--8~--1~--0~-----|

Outro (2:59 - 3:12)
G|----------------|
D|----------------|
A|----------------|
D|-5~--8~--1~--0~-| x2


Tabbed by Kyle Kenney
neverplaytosswithachainsaw@hotmail.com
www.myspace.com/tehkewl
Добавлено: 27.11.2013
Другие материалы по этой песне:
  • Аккорды и текст

Страница создана 04.04.2012
http://primanota.ru/hollywood-undead/the-loss-chords.htm
Привет, Гость.
Предлагаем пройти революционный курс по гитаре.
Подарок от PrimaNota.Ru, забирай!