PrimaNota.ru - самый крупный в мире бесплатный архив песенных текстов, аккордов, табулатур и нот


Hollies - Hes My Brother He Aint Heavy - бас-таба, видео

Регистрация Запомнить меня
Войти через:  Facebook Google Twitter Vk Yandex Mail.ru

Hollies - Hes My Brother He Aint Heavy - бас-таба, видео

Печатать
Просмотров: 99
h/hollies/Hes_my_brother_he_ain't_heavy.btab

Basstab by Jan Bjorklund, Finland  jani_bjorklund@yahoo.se>
You are welcome to request for basstabs!
Bienvenidos a pedirme transcripciones para el bajo!
Fingering and positions as suggested by TablEdit. 

TablEdited by Jan Bjorklund
Tuning : E A D G 	Time Signature: 4/4

 |       |       |       |        |       |       |       |        
|0-------------------------------|--------------------------------|
|--------------------------------|4-------------------------------|
|--------------------------------|--------------------------------|
|--------------------------------|--------------------------------|

 |       |       |       |        |       |       |       |        
|--------------------------------|--------------------------------|
|2-------------------------------|0-------------------------------|
|--------------------------------|--------------------------------|
|--------------------------------|--------------------------------|

 |       |       |       |        |       |       |       |        
|0---------------0---0-------0---|--------------------------------|
|--------------0-----------------|4-------------0-4---4-------4---|
|--------------------------------|--------------------------------|
|--------------------------------|--------------------------------|

 |       |       |       |        |       |       |       |        
|--------------------------------|2-----------2-4-----------------|
|2-------------2-2---2-------2---|------------------------1-------|
|--------------------------------|----------------5---------------|
|--------------------------------|--------------------------------|

 |       |       |       |        |       |       |       |        
|--------------------------------|--------------------------------|
|2---------------2---2-------2---|3---------------3---3-------3---|
|--------------2-----------------|--------------3-----------------|
|--------------------------------|--------------------------------|

 |       |       |       |        |       |       |       |        
|2---------------2---2-------4---|--------------------------------|
|--------------2-----------------|0---------------0---------------|
|--------------------------------|--------------------------------|
|--------------------------------|--------------------------------|

 |       |       |       |        |       |       |       |        
|0---------------0---0-------0---|--------------------------------|
|--------------0-----------------|4-------------0-4---4-------4---|
|--------------------------------|--------------------------------|
|--------------------------------|--------------------------------|

 |       |       |       |        |       |       |       |        
|--------------------------------|--------------------------------|
|2---------------2---2-------2---|1-------------1-1---1-------1---|
|--------------2-----------------|--------------------------------|
|--------------------------------|--------------------------------|

 |       |       |       |        |       |       |       |        
|0---------------0---0-------0-1-|2-----------4-------------------|
|--------------0-----------------|--------------------------------|
|--------------------------------|----------------5-----------5---|
|--------------------------------|--------------------------------|

 |       |       |       |        |       |       |       |        
|0---------------0---0-------0---|2-------------------------------|
|--------------0-----------------|----------------0---------------|
|--------------------------------|--------------------------------|
|--------------------------------|--------------------------------|

 |       |       |       |        |       |       |       |        
|0---------------0---0-------0---|--------------------------------|
|--------------0-----------------|4-------------0-4---4-------4---|
|--------------------------------|--------------------------------|
|--------------------------------|--------------------------------|

 |       |       |       |        |       |       |       |        
|--------------------------------|2-----------2-4-----------------|
|2---------------2---2-------2---|------------------------1-------|
|--------------2-----------------|----------------5---------------|
|--------------------------------|--------------------------------|

 |       |       |       |        |       |       |       |        
|--------------------------------|--------------------------------|
|2---------------2---2-------2---|3---------------3---3-------3---|
|--------------2-----------------|--------------3-----------------|
|--------------------------------|--------------------------------|

 |       |       |       |        |       |       |       |        
|2---------------2---2-------4---|--------------------------------|
|--------------2-----------------|0---------------0-------0-------|
|--------------------------------|--------------------------------|
|--------------------------------|--------------------------------|

 |       |       |       |        |       |       |       |        
|0---------------0---0-------0---|--------------------------------|
|--------------0-----------------|4-------------0-4---4-------4---|
|--------------------------------|--------------------------------|
|--------------------------------|--------------------------------|

 |       |       |       |        |       |       |       |        
|--------------------------------|--------------------------------|
|2---------------2---2-------2---|1-------------1-1---1-------1---|
|--------------2-----------------|--------------------------------|
|--------------------------------|--------------------------------|

 |       |       |       |        |       |       |       |        
|0---------------0---0-------0-1-|2-----------2-4-----------------|
|------------0-------------------|--------------------------------|
|--------------------------------|----------------5-------5-------|
|--------------------------------|--------------------------------|

 |       |       |       |        |       |       |       |        
|0---------------0---0-------0---|2-------2-------4---------------|
|--------------0-----------------|--------------------------------|
|--------------------------------|--------------------------------|
|--------------------------------|--------------------------------|

 |       |       |       |        |       |       |       |        
|--------------------------------|--------------------------------|
|--------------------------------|--------------------------------|
|3-----------3-------------------|3-----------3-------------------|
|--------------------------------|--------------------------------|

 |       |       |       |        |       |       |       |        
|--------------------------------|------------------------5---5---|
|--------------------------------|--------------------------------|
|3-----------3-------------------|3-----------3-------------------|
|--------------------------------|--------------------------------|

 |       |       |       |        |       |       |       |        
|4-------------------------4-2-4-|--------------------------------|
|--------------------------------|0-------------------------------|
|--------------------------------|--------------------------------|
|--------------------------------|--------------------------------|

 |       |       |       |        |       |       |       |        
|--------------------------------|--------------------------------|
|--------------------------------|2---------------0---------------|
|3---------------2---------------|--------------------------------|
|--------------------------------|--------------------------------|

 |       |       |       |        |       |       |       |        
|--------------------------------|--------------------------------|
|--------------------------------|----------------2---------------|
|3---------------2---------------|0-------------------------------|
|--------------------------------|--------------------------------|

 |       |       |       |        |       |       |       |        
|--------------------------------|--------------------------------|
|0-----------0---0-----------0---|0-------------------------------|
|--------------------------------|--------------------------------|
|--------------------------------|--------------------------------|

 |       |       |       |        |       |       |       |        
|0---------------0---0-------0---|--------------------------------|
|--------------0-----------------|4-------------0-4---4-------4---|
|--------------------------------|--------------------------------|
|--------------------------------|--------------------------------|

 |       |       |       |        |       |       |       |        
|--------------------------------|2-----------2-4-----------------|
|2-------------2-2---2-------2---|------------------------1-------|
|--------------------------------|----------------5---------------|
|--------------------------------|--------------------------------|

 |       |       |       |        |       |       |       |        
|--------------------------------|--------------------------------|
|2---------------2---2-------2---|3---------------3---3-------3---|
|--------------2-----------------|--------------3-----------------|
|--------------------------------|--------------------------------|

 |       |       |       |        |       |       |       |        
|2---------------2---2-------4---|--------------------------------|
|--------------2-----------------|0---------------0-------0-------|
|--------------------------------|--------------------------------|
|--------------------------------|--------------------------------|

 |       |       |       |        |       |       |       |        
|0---------------0---0-------0---|4-------------------------------|
|--------------0-----------------|----------------4-------4-------|
|--------------------------------|--------------------5-------5---|
|--------------------------------|--------------------------------|

 |       |       |       |        |       |       |       |        
|--------------------------------|--------------------------------|
|2---------------2---2-------2---|1-------------1-1---1-------1---|
|--------------2-----------------|--------------------------------|
|--------------------------------|--------------------------------|

 |       |       |       |        |       |       |       |        
|0---------------0---0-------0-1-|2-----------4-------------------|
|--------------0-----------------|--------------------------------|
|--------------------------------|----------------5-------5-------|
|--------------------------------|--------------------------------|

 |       |       |       |        |       |       |       |        
|0---------------0---0-------0---|--------------------------------|
|--------------0-----------------|4-------------0-4---4-------4---|
|--------------------------------|--------------------------------|
|--------------------------------|--------------------------------|

 |       |       |       |        |       |       |       |        
|--------------------------------|2-----------2-4-----------------|
|2---------------2---2-------2---|------------------------1-------|
|--------------2-----------------|----------------5---------------|
|--------------------------------|--------------------------------|

 |       |       |       |        |       |       |       |        
|--------------------------------|--------------------------------|
|2---------------2---2-------2---|3---------------3---3-------3---|
|--------------2-----------------|--------------3-----------------|
|--------------------------------|--------------------------------|

 |       |       |       |        |       |       |       |        
|2---------------2---2-------4---|--------------------------------|
|--------------2-----------------|0---------------0-------0-------|
|--------------------------------|--------------------------------|
|--------------------------------|--------------------------------|

 |       |       |       |        |       |       |       |        
|0---------------0---0-------0---|--------------------------------|
|--------------0-----------------|4-------------0-4---4-------4---|
|--------------------------------|--------------------------------|
|--------------------------------|--------------------------------|

 |       |       |       |        |       |       |       |        
|--------------------------------|--------------------------------|
|2---------------2---2-------2---|0-----------0-------------------|
|--------------2-----------------|--------------------------------|
|--------------------------------|--------------------------------|

 |       |       |       |        |       |       |       |        
|0---------------0---0-------0---|--------------------------------|
|--------------0-----------------|4-------------0-4---4-------4---|
|--------------------------------|--------------------------------|
|--------------------------------|--------------------------------|

 |       |       |       |        |       |       |       |        
|--------------------------------|--------------------------------|
|2---------------2---2-------2---|0-----------0-------------------|
|--------------2-----------------|--------------------------------|
|--------------------------------|--------------------------------|

 |       |       |       |        |       |       |       |        
|0---------------0---0-------0---|--------------------------------|
|--------------0-----------------|4-------------0-4---4-------4---|
|--------------------------------|--------------------------------|
|--------------------------------|--------------------------------|

 |       |       |       |        |       |       |       |        
|--------------------------------|--------------------------------|
|2---------------2---2-------2---|0-----------0-------------------|
|--------------2-----------------|--------------------------------|
|--------------------------------|--------------------------------|

 |       |       |       |        |       |       |       |        
|0---------------0---0-------0---|--------------------------------|
|--------------0-----------------|4-------------0-4---4-------4---|
|--------------------------------|--------------------------------|
|--------------------------------|--------------------------------|

 |       |       |       |        |       |       |       |        
|--------------------------------|--------------------------------|
|2---------------2---2-------2---|0-----------0-------------------|
|--------------2-----------------|--------------------------------|
|--------------------------------|--------------------------------|

 |       |       |       |        |       |       |       |        
|0-------------------------------|--------------------------------|
|--------------------------------|--------------------------------|
|--------------------------------|--------------------------------|
|--------------------------------|--------------------------------|


Created with TablEdit http://www.tabledit.com/

............................................................
     
Добавлено: 16.06.2013
Другие материалы по этой песне:
  • Аккорды и текст

Страница создана 16.06.2013
http://primanota.ru/hollies/hes-my-brother-he-aint-heavy-chords.htm
Привет, Гость.
Предлагаем пройти революционный курс по гитаре.
Подарок от PrimaNota.Ru, забирай!