PrimaNota.ru - самый крупный в мире бесплатный архив песенных текстов, аккордов, табулатур и нот


Hollies - Dont Run And Hide - бас-таба, видео

Регистрация Запомнить меня
Войти через:  Facebook Google Twitter Vk Yandex Mail.ru

Hollies - Dont Run And Hide - бас-таба, видео

Печатать
Просмотров: 100
Don't Run And Hide
The Hollies
Written by Allan Clarke, Tony Hicks and Graham Nash; released as a B-side 
to "Bus Stop"

Refrain:
G|------- ------- ------- -------|------- ------- ------- -------|
D|-------------------------------|-------------------------------|
A|-------------------------------|7---7---7-------7---7----------|
E|-------------------------------|-------------------------------|
 (drums)                                  Don't   run and     hide


G|------- ------- ------- -------|------- ------- ------- -------|
D|------------------------4---7--|6------------------------------|
A|5---5-----------5---7----------|--------7-------7---7---7------|
E|--------7---7------------------|-------------------------------|
          from the peo -  ple,            don't   run and     hide


G|------- ------- ------- -------|------- ------- ------- -------|
D|------------------------4---7--|6------------------------------|
A|5---5-----------5---7----------|--------7-------7---7---7------|
E|--------7---7------------------|-------------------------------|
          from them all,                  Don't   run and     hide


G|------- ------- ------- -------|------- ------- ------- -------|
D|-------------------------------|-------------------------------|
A|5---5---5---5------------------|----------------3--------------|
E|----------------5-------4------|5-----------5------------------|
          now,   'cause   you're  on   -  ly      hur- ting  your-


G|9------ ----8-- ------- 6------|------- ------- ------- -------|
D|-------------------------------|----9-----------7-------5------|
A|-------------------------------|-------------------------------|
E|-------------------------------|-------------------------------|
  self.


G|------- ------- ------- -------|------- ------- ------- -------|
D|-------------------------------|-------------------------------|
A|7---------------7---7----------|7---------------7--------------|
E|----------------------------7--|------------7-------4---5---7--|



G|------- ------- ------- -------|------- ------- ------- -------|
D|-------------------------------|------------6---7---6---7---9--|
A|7---------------7---7----------|7------------------------------|
E|------------7---------------7--|-------------------------------|
                                                  Ask     me

Verse:
G|------- ------- ------- -------|------- ------- ------- -------|
D|-------------------------------|-------------------------------|
A|7---------------5---5----------|7---------------5---5----------|
E|------------7---------------7--|------------7---------------7--|
  why,    and I'll tell   you things      that    ne  -   ver
                                              you've

G|------- ------- ------- -------|------- ------- ------- -------|
D|-------------------------------|-------------------------------|
A|7---------------5---5----------|7---------------5---5----------|
E|------------7---------------7--|------------7---------------7--|
  heard,          now,                        A - bout    your-


G|------- ------- ------- -------|------- ------- ------- -------|
D|-------------------------------|-------------------------------|
A|7---------------5---5----------|7---------------5---5----------|
E|------------7---------------7--|------------7---------------7--|
  self    what    sa  -   ying, I         know    it      will
              they're                         that

G|------- ------- ------- -------|------- ------- ------- -------|
D|-------------------------------|-------------------------------|
A|7---------------5---5----------|7---------------5-------5---6--|
E|------------7---------------7--|------------7-------7----------|
  hurt            you.                            Please  fight


G|------- ------- ------- -------|------- ------- ------- -------|
D|-------------------------------|-------------------------------|
A|7---------------5---5----------|7---------------5---5----------|
E|------------7---------------7--|------------7---------------7--|
  back,   it's impor  -   tant how        you ac- cept    their


G|------- ------- ------- -------|------- ------- ------- -------|
D|-------------------------------|-------------------------------|
A|7---------------5---5----------|7---------------5-------5---6--|
E|------------7---------------7--|------------7-------7----------|
  lies                    now.                    If      you


G|------- ------- ------- -------|------- ------- ------- -------|
D|-------------------------------|-------------------------------|
A|7---------------5---5----------|7---------------5---5----------|
E|------------7---------------7--|------------7---------------7--|
  run,    you condemn     yourself,       and     re  -   a-
                                              they'll

G|------- ------- ------- -------|
D|-------------------------------|
A|7---------------5---5----------|
E|------------7---------------7--|
  lize                    now.

Bridge:
G|------- ------- ------- -------|------- ------- ------- -------|
D|-------------------------------|-------------------------------|
A|7------------------------------|-------------------------------|
E|-------------------------------|3------------------------------|
  Then    you'll  hur  -  ting me,       'cause   left    on  my
              be                              I'm

G|------- ------- ------- -------|------- ------- ------- -------|
D|-------------------------------|-------------------------------|
A|-------------------------------|------------------------4---5--|
E|5------------------------------|5---5---5---5---5---5----------|
  own,    and     got them to face.
              I've

G|------- ------- ------- -------|------- ------- ------- -------|
D|-------------------------------|-------------------------------|
A|7-----------7---5---5-------7--|7-----------7---5---5-------7--|
E|------------------------5------|------------------------5------|


Refrain:
G|------- ------- ------- -------|------- ------- ------- -------|
D|-------------------------------|--------------------4---7---4--|
A|------------7---7---7-------7--|5-----------5---7--------------|
E|-------------------------------|-------------------------------|
          Don't   run and     hide        from the peo -  ple,


G|------- ------- ------- -------|------- ------- ------- -------|
D|6------------------------------|--------------------4---7---4--|
A|------------7---7---7---7------|5-----------5---7--------------|
E|-------------------------------|--------7----------------------|
          don't   run and     hide        from them all,


G|------- ------- ------- -------|------- ------- ------- -------|
D|6------------------------------|-------------------------------|
A|------------7---7---7----------|5-----------5---5--------------|
E|-------------------------------|-------------------------------|
          Don't   run and     hide        now,   'cause   you're


G|2------ ------- ------- -------|9------ ----8-- ------- 6------|
D|-------------------------------|-------------------------------|
A|----------------0-------3------|-------------------------------|
E|--------2---2------------------|-------------------------------|
  on  -   ly      hur- ting  yourself.


G|------- ------- ------- -------|------- ------- ------- -------|
D|----9-----------7-------5------|-------------------------------|
A|-------------------------------|7-----------7---7---7----------|
E|-------------------------------|----------------------------7--|



G|------- ------- ------- -------|------- ------- ------- -------|
D|-------------------------------|-------------------------------|
A|7-----------7-------7----------|7-----------7---7---7----------|
E|----------------------------7--|----------------------------7--|



G|------- ------- ------- -------|
D|-------------------------------|
A|7-----------7------------------|
E|--------------------4---5---7--|
                  Stay    with

Verse:
G|------- ------- ------- -------|------- ------- ------- -------|
D|-------------------------------|-------------------------------|
A|7---------------5---5----------|7---------------5---5----------|
E|------------7---------------7--|------------7---------------7--|
  me,     you convince    it  all         that it isn't


G|------- ------- ------- -------|------- ------- ------- -------|
D|-------------------------------|-------------------------------|
A|7---------------5---5----------|7---------------5---5----------|
E|------------7---------------7--|------------7---------------7--|
  true            now,                            Be      with


G|------- ------- ------- -------|------- ------- ------- -------|
D|-------------------------------|-------------------------------|
A|7---------------5---5----------|7---------------5---5----------|
E|------------7---------------7--|------------7---------------7--|
  me,     and     prove   just how        strong  love    can
              we'll                           our

G|------- ------- ------- -------|------- ------- ------- -------|
D|-------------------------------|-------------------------------|
A|7---------------5---5----------|7---------------5-------5---6--|
E|------------7---------------7--|------------7-------7----------|
  be              now.                            Please  fight


G|------- ------- ------- -------|------- ------- ------- -------|
D|-------------------------------|-------------------------------|
A|7---------------5---5----------|7---------------5---5----------|
E|------------7---------------7--|------------7---------------7--|
  back,   it's impor  -   tant how        you ac- cept    their


G|------- ------- ------- -------|------- ------- ------- -------|
D|-------------------------------|-------------------------------|
A|7---------------5---5----------|7---------------5-------5---6--|
E|------------7---------------7--|------------7-------7----------|
  lies                    now.                    If      you


G|------- ------- ------- -------|------- ------- ------- -------|
D|-------------------------------|-------------------------------|
A|7---------------5---5----------|7---------------5---5----------|
E|------------7---------------7--|------------7---------------7--|
  run,    you condemn     yourself,       and     re  -   a-
                                              they'll

G|------- ------- ------- -------|
D|-------------------------------|
A|7---------------5---5----------|
E|------------7---------------7--|
  lize                    now.

Bridge:
G|------- ------- ------- -------|------- ------- ------- -------|
D|-------------------------------|-------------------------------|
A|7------------------------------|-------------------------------|
E|-------------------------------|3------------------------------|
  Then    you'll  hur  -  ting me,       'cause   left    on  my
              be                              I'm

G|------- ------- ------- -------|------- ------- ------- -------|
D|-------------------------------|-------------------------------|
A|-------------------------------|------------------------4---5--|
E|5------------------------------|5-----------5---5---5----------|
  own,    and     got them to face.
              I've

G|------- ------- ------- -------|------- ------- ------- -------|
D|-------------------------------|-------------------------------|
A|7-----------7---7---7-------7--|7-----------7---7---7-------7--|
E|-------------------------------|-------------------------------|


Refrain:
G|------- ------- ------- -------|------- ------- ------- -------|
D|-------------------------------|------------------------4---7--|
A|------------7---7-------7---7--|5-------5-------5---7----------|
E|--------------------7----------|------------7------------------|
          Don't   run and     hide        from the peo -  ple,


G|------- ------- ------- -------|------- ------- ------- -------|
D|6------------------------------|--------------------4---7---4--|
A|------------7---7---7-------7--|5-----------5---7--------------|
E|-------------------------------|--------7----------------------|
          don't   run and     hide        from them all,


G|------- ------- ------- -------|------- ------- ------- -------|
D|6-----------6------------------|-------------------------------|
A|----------------7---7-------7--|5-----------5------------------|
E|-------------------------------|----------------5-------4------|
          Don't   run and     hide        now,   'cause   you're


G|------- ------- ------- -------|9------ ----8-- ------- 6------|
D|-------------------------------|-------------------------------|
A|-------------------------------|-------------------------------|
E|5-----------5---8-----------8--|-------------------------------|
  on  -   ly      hur- ting  yourself.


G|------- ------- ------- -------|
D|----9-----------7-------5------|
A|-------------------------------|
E|-------------------------------|


Outro:
G|------- ------- ------- -------|------- ------- ------- -------|
D|-------------------------------|-------------------------------|
A|7---------------7---7----------|7---------------7-------5---6--|
E|------------7---------------7--|------------7-------7----------|
          Don't   run and     hide        from the peo -  ple,
                                         (don't   run and     hide)
repeat and fade out...

Please e-mail me for any corrections, or write a comment.
Добавлено: 05.06.2012
Другие материалы по этой песне:
  • Аккорды и текст

Страница создана 05.06.2012
http://primanota.ru/hollies/dont-run-and-hide-chords.htm
Привет, Гость.
Предлагаем пройти революционный курс по гитаре.
Подарок от PrimaNota.Ru, забирай!