PrimaNota.ru - самый крупный в мире бесплатный архив песенных текстов, аккордов, табулатур и нот


Hole - Babydoll - текст песни, таба, видео

Регистрация Запомнить меня
Войти через:  Facebook Google Twitter Vk Yandex Mail.ru

Hole - Babydoll - текст песни, таба, видео

Печатать
Просмотров: 246
From 1991's "Pretty on the Inside". This is my first tab, so please forgive any errors!
There are absolutely ZERO tabs for this song on the internet, so I figured I'd give it a
shot. Not sure how accurate it is, but it's definitely close if not spot-on in certain 
parts. The song is played with heavy distortion and involves a few string bends, but it's
mostly just sliding. Fairly easy to play if you can keep up with the pace, listen to the 
song to get the timing totally right.

	Note: (b = string bend)

	Intro Riff:

	e|-------------------------------------------------|
	B|-------------------------------------------------|
	G|-------------------------------------------------|
	D|-5555555---2222222-------------------------------|
	A|-5555555---2222222-------------------------------|
	E|-3333333---0000000-------------------------------|

	e|-------------------------------------------------|
	B|-------------------------------------------------|
	G|-------------------------------------------------|
	D|-6666666---9---666666---9---666666---9---666666--|
	A|-6666666---9---666666---9---666666---9---666666--|
	E|-4444444---7---444444---7---444444---7---444444--|

	e|-------------------------------------------------|
	B|-------------------------------------------------|
	G|-------------------------------------------------|
	D|-2222222---5---222222---5---222222---5---2222222-|
	A|-2222222---5---222222---5---222222---5---2222222-|
	E|-0000000---3---000000---3---000000---3---0000000-|



	"Here you come, sucking my energy..."

	e|----------------------------------------------------|
	B|----------------------------------------------------|
	G|----------------------------------------------------|
	D|--777777---10---777777---10---777777---10---7777777-|
	A|--777777---10---777777---10---777777---10---7777777-|
	E|--555555----8---555555----8---555555----8---5555555-|


	"Ba...by...doll"

	e|--------------------------------------------------|
	B|--------------------------------------------------|
	G|--------------------------------------------------|
	D|-222222---5---222222---5---222222-----------------|
	A|-222222---5---222222---5---222222-----------------|
	E|-000000---0---000000---0---000000-----------------|


	"...drill it in my good hole so that I can see"

	e|--------------------------------------------------|
	B|--------------------------------------------------|
	G|--------------------------------------------------|
	D|--4444444---7777777---4444444---7777777-----------|
	A|--4444444---7777777---4444444---7777777-----------|
	E|--2222222---5555555---2222222---5555555-----------|


	"Ba...by...doll..."

	e|-----------------------------------------------------|
	B|-----------------------------------------------------|
	G|-----------------------------------------------------|
	D|--555555---8---555555---8---555555---8---555555---8--|
	A|--555555---8---555555---8---555555---8---555555---8--|
	E|--333333---6---333333---6---333333---6---333333---6--|


	"Here she comes, her pants undone, all waste and void"

	e|----------------------------------------------------|
	B|----------------------------------------------------|
	G|------5b-------5b-------5b--------------------------|
	D|--2---5b---2---5b---2---5b------55555555555555555---|
	A|--2---3b---2---3b---2---3b------55555555555555555---|
	E|--0--------0--------0-----------33333333333333333---|


	"There you go in your Nazi car..."

	e|-----------------------------------------------------|
	B|-----------------------------------------------------|
	G|-----------------------------------------------------|
	D|--555555---8---555555---8---555555---8---555555---8--|
	A|--555555---8---555555---8---555555---8---555555---8--|
	E|--333333---6---333333---6---333333---6---333333---6--|


	"In the dark, her, I destroy.... She's hanging in the blossom tree"

	e|--------------------------------------------------|
	B|--------------------------------------------------|
	G|--------------------------------------------------|
	D|-222222---55555555---222222---55555555---222222---|
	A|-222222---55555555---222222---55555555---222222---|
	E|-000000---00000000---000000---00000000---000000---|


	"Ba...by...doll"

	e|----------------------------------------------------|
	B|----------------------------------------------------|
	G|----------------------------------------------------|
	D|--6666666---9---6666666---9---6666666---9---6666666-|
	A|--6666666---9---6666666---9---6666666---9---6666666-|
	E|--4444444---7---4444444---7---4444444---7---4444444-|


	"Babydoll, she's all I feel.... I knife me and I slash my..."

	e|----------------------------------------------------|
	B|----------------------------------------------------|
	G|------5b-------5b-------5b--------------------------|
	D|--2---5b---2---5b---2---5b------55555555555555555---|
	A|--2---3b---2---3b---2---3b------55555555555555555---|
	E|--0--------0--------0-----------33333333333333333---|


	"Sick inside of me?..."

	e|----------------------------------------------------|
	B|----------------------------------------------------|
	G|----------------------------------------------------|
	D|--6666666---9---6666666---9---6666666---9---6666666-|
	A|--6666666---9---6666666---9---6666666---9---6666666-|
	E|--4444444---7---4444444---7---4444444---7---4444444-|


	"Drill it in my good hole so that I can see, yeah..."

	e|--------------------------------------------------|
	B|--------------------------------------------------|
	G|--------------------------------------------------|
	D|-222222---55555555---222222---55555555---222222---|
	A|-222222---55555555---222222---55555555---222222---|
	E|-000000---00000000---000000---00000000---000000---|


	"Here you come, sucking my energy..."

	e|----------------------------------------------------|
	B|----------------------------------------------------|
	G|----------------------------------------------------|
	D|--777777---10---777777---10---777777---10---7777777-|
	A|--777777---10---777777---10---777777---10---7777777-|
	E|--555555----8---555555----8---555555----8---5555555-|


	"Ba...by...doll"

	e|--------------------------------------------------|
	B|--------------------------------------------------|
	G|--------------------------------------------------|
	D|-222222---5---222222---5---222222-----------------|
	A|-222222---5---222222---5---222222-----------------|
	E|-000000---0---000000---0---000000-----------------|


	"She stares too long into the sun... I want a cancer..."

	e|--------------------------------------------------|
	B|--------------------------------------------------|
	G|--------------------------------------------------|
	D|--4444444---77777777---4444444---77777777---------|
	A|--4444444---77777777---4444444---77777777---------|
	E|--2222222---55555555---2222222---55555555---------|


	"You are mine and my energy, 'cause baby you are so much bigger..."

	e|-----------------------------------------------------|
	B|-----------------------------------------------------|
	G|-----------------------------------------------------|
	D|--5555555---88888888---5555555---88888888------------|
	A|--5555555---88888888---5555555---88888888------------|
	E|--3333333---66666666---3333333---66666666------------|


	"Ba...by...doll"

	e|--------------------------------------------------|
	B|--------------------------------------------------|
	G|--------------------------------------------------|
	D|-222222---5---222222---5---222222-----------------|
	A|-222222---5---222222---5---222222-----------------|
	E|-000000---0---000000---0---000000-----------------|


	"Little girl, she's on the floor.."

	e|----------------------------------------------------|
	B|----------------------------------------------------|
	G|------5b-------5b-------5b--------------------------|
	D|--2---5b---2---5b---2---5b------55555555555555555---|
	A|--2---3b---2---3b---2---3b------55555555555555555---|
	E|--0--------0--------0-----------33333333333333333---|


	"Little girl, she's on the ground..."

	e|----------------------------------------------------|
	B|----------------------------------------------------|
	G|------5b-------5b-------5b--------------------------|
	D|--2---5b---2---5b---2---5b------55555555555555555---|
	A|--2---3b---2---3b---2---3b------55555555555555555---|
	E|--0--------0--------0-----------33333333333333333---|


	"I am, I am, I am not free, she says..."
	(use wah pedal and bend the hell out of the strings)

	e|--------------------------------------------------|
	B|--------------------------------------------------|
	G|--------------------------------------------------|
	D|--2b---22---2b---22---2b---22---2b---22------2b---|
	A|--2b---22---2b---22---2b---22---2b---22------2b---|
	E|--0----00---0----00---0----00---0----00------0----|


At the very end, when she sings, "Hang on, it's a soul... until the soul comes down",
there is a lot of experimental playing that 	I didn't bother messing with. Basically run
your fingers up and down the fret board for a similar effect.
Добавлено: 24.11.2013
Другие материалы по этой песне:
  • Аккорды и текст

Страница создана 13.03.2012
http://primanota.ru/hole/babydoll-chords.htm
Привет, Гость.
Предлагаем пройти революционный курс по гитаре.
Подарок от PrimaNota.Ru, забирай!