PrimaNota.ru - самый крупный в мире бесплатный архив песенных текстов, аккордов, табулатур и нот


Hole - Drag - аккорды и текст, таба, бас-таба, видео

Регистрация Запомнить меня
Войти через:  Facebook Google Twitter Vk Yandex Mail.ru

Hole - Drag - аккорды и текст, таба, бас-таба, видео

Печатать
Просмотров: 217
Drag
Hole
Song: Drag
Artist: Hole
Album: "Malibu" single
Tabbed by: RockStarDoll (rockstardoll7@hotmail.com)
INTRO
E|----------------------------------------------0-0-0---
b|-----------------------------------------------------0
g|---------------------------------------------------0--
d|4/8-8-8-9-9-9\4-----8---9-4-----8---9-4-----8---------
a|4/8-8-8-9-9-9\4----8---9--4----8---9--4----8----------
e|2/6-6-6-7-7-7\2---6---7---2---6---7---2---6-----------
RIFF 1 (Pre Verse)
E|--------------0-0--    -------------------
b|------------------0    -------------------
g|-------------------    -------------------
d|8-8-8-9-9-9-4------ x3 8-8-8-9-9-9-4-4-4-4
a|8-8-8-9-9-9-4------    8-8-8-9-9-9-4-4-4-4
e|6-6-6-7-7-7-2------    6-6-6-7-7-7-2-2-2-2
 
RIFF 2 (Verse)                  
E|---------------------------   
b|---------------------------   
g|---------------------------   
d|4-4-4-4-4-4-4-4-8-8-8-9-9-9  
a|4-4-4-4-4-4-4-4-8-8-8-9-9-9   
e|2-2-2-2-2-2-2-2-6-6-6-7-7-7
 
E|---------------------------------------------------   
b|-------------------------------------------------- 
g|---------------------------------------------------
d|8-8-4-4-4-4-7-7-4-4-4-4--9-8-8/9\8--9-8-8/9\8-8/9\8
a|8-8-4-4-4-4-7-7-4-4-4-4----------------------------   
e|6-6-2-2-2-2-5-5-2-2-2-2----------------------------
RIFF 4 (Chorus)                     
E|-------------------------------   
b|-------------------------------   
g|-------------------------------   
d|11-11-11-11-7-7-7-6-6-6-4-4-4-4   
a|11-11-11-11-7-7-7-6-6-6-4-4-4-4   
e|9--9--9--9--5-5-5-4-4-4-2-2-2-2   
 
RIFF 5 (Post Chorus)
E|----------------------
b|----------------------
g|----------------------
d|---11------7---6---4--                             
a|-11--11---7---6---4-4-                            
e|9------9-5---4---2---2
 
SONG ORDER
Intro
Riff 1
Riff 2x4
Riff 3
Riff 4x5
Riff 1
Riff 2x6
Riff 3
Riff 4x5
Riff 5
Riff 4x7
 
Then, do this:
E|--------------
b|--------------
g|--------------
d|7-9-11---7-6-4
a|7-9-11---7-6-4
e|5-7--9---5-4-2
 
Outro (Riff 4x12)

________________________________________________________________________________
     
Добавлено: 07.12.2013
Другие материалы по этой песне:
  • Аккорды и текст

Страница создана 20.04.2012
http://primanota.ru/hole/drag-chords.htm
Привет, Гость.
Предлагаем пройти революционный курс по гитаре.
Подарок от PrimaNota.Ru, забирай!