PrimaNota.ru - самый крупный в мире бесплатный архив песенных текстов, аккордов, табулатур и нот


Hiroyuki Sawano - Shingeki No Kyojin - Attack On Titan - Eye Water - таба, видео

Регистрация Запомнить меня
Войти через:  Facebook Google Twitter Vk Yandex Mail.ru

Hiroyuki Sawano - Shingeki No Kyojin - Attack On Titan - Eye Water - таба, видео

Печатать
Просмотров: 597
Уроки эстрадного вокала в Санкт-Петербурге
Part 1
e|------------------------7--8---------------------------10------------------|
B|--------------------------------------8--------------------8---------------|
G|---------5--7-/-9-~-------------7----------5-------------------------------|
D|--5-/-7---------------------------------------7----------------------------|
A|---------------------------------------------------------------------------|
E|---------------------------------------------------------------------------|

Part 2
e|------------------------7--8--------------------------------------------------10---8-~-----|
B|-------------------------------------------------------8--------------8-/-10---------------|
G|---------5--7-/-9-~-------------7--7-h-9-p-7-\-5---------7----5----------------------------|
D|--5-/-7------------------------------------------------------------------------------------|
A|-------------------------------------------------------------------------------------------|
E|-------------------------------------------------------------------------------------------|

Part 3
e|---------------------------------------------------------------------------|
B|---------------------------------------------------------------------------|
G|-----9--9-~--9-------------------------------------------------------------|
D|--7-------------9--------10-~----------------------------------------------|
A|---------------------12----------------------------------------------------|
E|---------------------------------------------------------------------------|

Part 4
e|----------------------------8----------------------------------------------|
B|---------------------12-~--------------------------------------------------|
G|---------9--9-~--9-------------9-~-----------------------------------------|
D|--5-/-7--------------------------------------------------------------------|
A|---------------------------------------------------------------------------|
E|---------------------------------------------------------------------------|

Part 5
e|---------------------------------------------/-10--8--10-~----8------------|
B|----------------------------------8-----8------------------------10--------|
G|---------9--9-~--9-------------------9-------------------------------12----|
D|--5-/-7-------------9----10--7---------------------------------------------|
A|---------------------------------------------------------------------------|
E|---------------------------------------------------------------------------|

Part 6
e|--12--10--10-/-8--8--8--/-15-----------------------------------------------|
B|------------------------------13----12--13--12-----------------------------|
G|---------------------------------------------------------------------------|
D|---------------------------------------------------------------------------|
A|---------------------------------------------------------------------------|
E|---------------------------------------------------------------------------|

Part 7
e|--/-12--10--10-\-8-----/-12--10-~----12--8---------------------------------|
B|--------------------8-----------------------10-~---------------------------|
G|---------------------------------------------------------------------------|
D|---------------------------------------------------------------------------|
A|---------------------------------------------------------------------------|
E|---------------------------------------------------------------------------|

Part 8
e|--/-12--10--10-\-8--8--8---/-15--15-~----10-----------------------------------10-~--10----10-12-10-10-----|
B|---------------------------------------------13-~--13----13-12----12--10--13-----------13--------------13~|
G|----------------------------------------------------------------------------------------------------------|
D|------------------------------------------------------10-------10-----------------------------------------|
A|----------------------------------------------------------------------------------------------------------|
E|----------------------------------------------------------------------------------------------------------|

Part 9
e|--8--7---------------8--7--------------------------------------------------|
B|--------5--8-/-10-~--------5-----------------------------------------------|
G|------------------------------5-~------------------------------------------|
D|---------------------------------------------------------------------------|
A|---------------------------------------------------------------------------|
E|---------------------------------------------------------------------------|

Part 10
e|--8--7-----------------------------10--------------------------------------|
B|--------5--8-/-10-~--10--10-/-12-------13-~---13----12----10----10---------|
G|---------------------------------------------------------------------------|
D|-------------------------------------------------10----10----10----10------|
A|---------------------------------------------------------------------------|
E|---------------------------------------------------------------------------|

Part 11
e|--8--7---------------8--7----------/-8--7--8--8-/-10-~---12--12-~----8--7-~---|
B|--------5--8-/-10-~--------5--------------------------------------------------|
G|------------------------------5-~---------------------------------------------|
D|------------------------------------------------------------------------------|
A|------------------------------------------------------------------------------|
E|------------------------------------------------------------------------------|

************************************

| /   slide up
| \   slide down
| h   hammer-on
| p   pull-off
| ~   vibrato
| +   harmonic
| x   Mute note
| b   Bend
| pb  Pre-bend
| br  Bend release
| pbr Pre-bend release
| brb Bend release bend

************************************
Watch the tutorial at www.youtube.com/Zieglers666

Thanks!

Добавлено: 21.12.2015
Другие материалы по этой песне:
  • Аккорды и текст

Страница создана 21.12.2015
http://primanota.ru/hiroyuki-sawano/shingeki-no-kyojin-attack-on-titan-eye-water-chords.htm
Привет, Гость.
Предлагаем пройти революционный курс по гитаре.
Подарок от PrimaNota.Ru, забирай!