PrimaNota.ru - самый крупный в мире бесплатный архив песенных текстов, аккордов, табулатур и нот


Hinder - Heartless - текст песни, таба, видео

Регистрация Запомнить меня
Войти через:  Facebook Google Twitter Vk Yandex Mail.ru

Hinder - Heartless - текст песни, таба, видео

Печатать
Просмотров: 574
Heartless by Hinder
Tuning: D-Standard (DGCFAD)
Tabbed by Quinity
Intro-Riff:
D|-------------------------------10--------------------|
A|--12-13-10---12-13-13-13-12-13----13-12-10----10-----|
F|-------------------------------------------12----9---|
C|-----------------------------------------------------|
G|-----------------------------------------------------|
D|-----------------------------------------------------|

Verse:

Clean Guitar:
A-C-Dsus2-Dsus2 (4x)

Background-Guitar(Overdrive)
1.part
D|----------------------------|
A|----------------------------|
F|----------------------------|
C|----------------------------|
G|-0---3---5---5-6-5-3-0------|
D|----------------------------|

^                    ^                              ^          ^(5-6-5-3-0)
   Im feeling sick inside 'cause I cant believe its happening
2.part
D|----------------------------|
A|----------------------------|
F|-------------101010---------|
C|-------------x-x-x----------|
G|-0---3---5---8-8-8----------| (Still the empty string for the verse before)
D|----------------------------|

               ^                 ^      ^(Play fast tripple)
I thought that he'd been gone by now

Verse continiues with 1.part then 2.part

Pre-Chorus:

I finally figured it out....
d|---------------------------|
A|---------------------------|
F|---------------------------|
C|--10-10-10-10-99999999-----| 9 is played 8x in doubled rythm of 10 
G|--8--8--8--8--77777777-----| 7                                  8
D|---------------------------|

Chorus:(Im not pretty sure here, it seems accurate in a way)
D|---------------------------------------|
A|---------------------------------------|
F|---------------------------------------|
C|---------------------------------------|
G|-9/10/7-7--10-9--7---10--10/9--9-9-7---|
D|-7/8-/5-5--8--7--5---8---8-/7--7-7-5---|
                       3x(    
Listen to the Song to get the strumming

I think its like that:

^(7-8-5)^   ^(5x7)    ^ (8x10                ^(9x7)
You're heartless, the Devil in duisguise, so heartless 
            ^
you make me feel just like
   ^(1.time)^(2.time)^(3.time)^(8/7)^(7x9)
Im selfish, foolish, helpless so     alone
^  ^  ^    
so so heartless

In the background the Intro Riff starts in

Then its just:
Verse 1x
Pre-Chrorus
Chorus 2x
Solo: 
D|--------------------------------10----------13-12-----------------------------------------------|
A|--12-13-10-12-13-13-13-13-12-13----13-12-10-------13-12-----------------------------------------|
F|-------------------------------------------------------10-9-9-9-12-10-9-10----------------------|
C|---------------------------------------------------------------------------12-12-10-10-10-12-12-|
G|------------------------------------------------------------------------------------------------|
D|------------------------------------------------------------------------------------------------|

D|------------------------------------------------------------10-10-10-12-12--12-10-10-10-12-12-12|
A|--------------------10----10-12(8x)-12-13-13-13-12-13-12-13-------------------------------------|
F|9-9-9-10-9-12-10-12----12-----------------------------------------------------------------------|
C|------------------------------------------------------------------------------------------------|
G|------------------------------------------------------------------------------------------------|
D|------------------------------------------------------------------------------------------------|

D|-13^~-12^~--------------------------------------------------------------------------------------|
A|-----------10~---8~--6~-------------------------------------------------------------------------|
F|------------------------9~----------------------------------------------------------------------|
C|------------------------------------------------------------------------------------------------|
G|------------------------------------------------------------------------------------------------|
D|------------------------------------------------------------------------------------------------|
Before the 9~ the Verse starts without Guitar

Then on "all alone" the double & tripple downstroke comes in and leads into chorus:

All alone
D|------------|
A|------------|
F|------------|
C|------------|
G|-9-9--9-9-9-|
D|-7-7--7-7-7-|

Chorus

End of song
Добавлено: 22.09.2013
Другие материалы по этой песне:
  • Аккорды и текст

Страница создана 22.09.2013
http://primanota.ru/hinder/heartless-chords.htm
Привет, Гость.
Предлагаем пройти революционный курс по гитаре.
Подарок от PrimaNota.Ru, забирай!