PrimaNota.ru - самый крупный в мире бесплатный архив песенных текстов, аккордов, табулатур и нот


Hinder - Bliss (I Don't Wanna Know) - текст песни, таба, видео

Регистрация Запомнить меня
Войти через:  Facebook Google Twitter Vk Yandex Mail.ru

Hinder - Bliss (I Don't Wanna Know) - текст песни, таба, видео

Печатать
Просмотров: 193
----------------------------------------------------------------------------
                      Bliss(I Don't Wanna Know)-Hinder
----------------------------------------------------------------------------

Tabbed by: Jake Carpenter
Email: Jake_MTDew@hotmail.com

Drop D Tuning


Intro:
e|--------------------------------|
B|--------------------------------|
G|----------5-5-5-5---------------|
D|-7-7-7-7--5-5-5-5--5-5-5-5--3~--|
A|-7-7-7-7--3-3-3-3--5-5-5-5--3~--|
E|-7-7-7-7-----------5-5-5-5--3~--|


Verse:
e|-------------------------|
B|-------------------------|2X
G|---------5---------------|
D|---7----5-5---5------3---|
A|--7-7--3-----5-5----3-3--|
E|-7----------5------3-----|


e|------------------------------------------------------------------------|
B|---5-5---5-5---3-3---1-1----5-5---5-5---3-3-----------------------------|
G|----5-----5-----4-----2------5-----5-----4------------------------------|
D|--7-----5-----5-----3------7-----5-----5-----3--3--33-333---5--5-555555-|
A|---------------------------------------------3--3--33-333---5--5-555555-|
E|---------------------------------------------3--3--33-333---5--5-555555-|

Chorus:
e|-----------------------------------|
B|-----------------------------------|2X
G|----------5-5-5-5------------------|
D|-3-3-3-3--5-5-5-5--5-5-5-5-5-5-5-5-|
A|-3-3-3-3--3-3-3-3--5-5-5-5-5-5-5-5-|
E|-3-3-3-3-----------5-5-5-5-5-5-5-5-|


e|-----------------------------------|
B|-----------------------------------|
G|---------5-5-5-5-------------------|
D|-7-7-7-7-5-5-5-5-5-5-5-5-0-0-0-0---|
A|-7-7-7-7-3-3-3-3-5-5-5-5-0-0-0-0---|
E|-7-7-7-7---------5-5-5-5-0-0-0-0---|

e|-----------------------------------|
B|-----------------------------------|
G|----------5-5-5-5------------------|
D|-3-3-3-3--5-5-5-5--5-5-5-5-5-5-5-5-|
A|-3-3-3-3--3-3-3-3--5-5-5-5-5-5-5-5-|
E|-3-3-3-3-----------5-5-5-5-5-5-5-5-|


e|-----------------------------------|
B|-----------------------------------|
G|----------5-5-5-5------------------|
D|-7-7-7-7--5-5-5-5--5-5-5-5--3-3-3-3|
A|-7-7-7-7--3-3-3-3--5-5-5-5--3-3-3-3|
E|-7-7-7-7-----------5-5-5-5--3-3-3-3|

e|--------------------------------|
B|--------------------------------|
G|----------5-5-5-5---------------|
D|-7-7-7-7--5-5-5-5--5-5-5-5--3~--|
A|-7-7-7-7--3-3-3-3--5-5-5-5--3~--|
E|-7-7-7-7-----------5-5-5-5--3~--|

e|-------------------------------------------------|
B|---5-5---5-5---3-3---1-1----5-5---5-5---3-3--1-1-|
G|----5-----5-----4-----2------5-----5-----4----2--|
D|--7-----5-----5-----3------7-----5-----5----3----|
A|-------------------------------------------------|
E|-------------------------------------------------|

e|------------------------------------------------------------------------|
B|---5-5---5-5---3-3---1-1----5-5---5-5---3-3-----------------------------|
G|----5-----5-----4-----2------5-----5-----4------------------------------|
D|--7-----5-----5-----3------7-----5-----5-----3--3--33-333---5--5-555555-|
A|---------------------------------------------3--3--33-333---5--5-555555-|
E|---------------------------------------------3--3--33-333---5--5-555555-|

Chorus:

e|-----------------------------------|
B|-----------------------------------|2X
G|----------5-5-5-5------------------|
D|-3-3-3-3--5-5-5-5--5-5-5-5-5-5-5-5-|
A|-3-3-3-3--3-3-3-3--5-5-5-5-5-5-5-5-|
E|-3-3-3-3-----------5-5-5-5-5-5-5-5-|


e|-----------------------------------|
B|-----------------------------------|
G|---------5-5-5-5-------------------|
D|-7-7-7-7-5-5-5-5-5-5-5-5-0-0-0-0---|
A|-7-7-7-7-3-3-3-3-5-5-5-5-0-0-0-0---|
E|-7-7-7-7---------5-5-5-5-0-0-0-0---|

e|-----------------------------------|
B|-----------------------------------|
G|----------5-5-5-5------------------|
D|-3-3-3-3--5-5-5-5--5-5-5-5-5-5-5-5-|
A|-3-3-3-3--3-3-3-3--5-5-5-5-5-5-5-5-|
E|-3-3-3-3-----------5-5-5-5-5-5-5-5-|

Solo:

e|---------------------------------------------------------|
B|---------------------------------------------------------|
G|--------------12------------------------12---------------|
D|-----------------15-14-12~-----------------15-14---------|
A|-12-15-15-12----------------12-15-15-12----------15------|
E|---------------------------------------------------------|

e|----------------------------------------------------|
B|------------------------------------------------13~-|
G|-------------12-------12b(14)r12-14-12----12-14-----|
D|----------------15-14------------------14-----------|
A|-12-15-15-12----------------------------------------|
E|----------------------------------------------------|

e|-------12-----------------------------------------------------------|
B|-13-15---15-13-15-13\12-13-12--12-----------------------------------|
G|-----------------------------14--14-12-14-12--12--------------------|
D|--------------------------------------------15--15-14-15-14-12b(14)-|
A|--------------------------------------------------------------------|
E|--------------------------------------------------------------------|

e|-----------------------------------------------------|
B|-----------------------------------------------------|
G|------------------------------15-14-15-14-15-14-12---|
D|----12-12h14p12-----------------------------------15-|
A|-15------------15-12-15-12---------------------------|
E|-----------------------------------------------------|

e|--------------------------------|
B|-12'''''-13''''''-15'''''''-16~-|
G|--------------------------------|
D|--------------------------------|
A|--------------------------------|
E|--------------------------------|

Chorus:

e|---------------------------------|
B|---------------------------------|6X
G|----------8-8-8-8----------------|
D|-6-6-6-6--8-8-8-8--8-8-8-8-8-8-8-|
A|-6-6-6-6--6-6-6-6--8-8-8-8-8-8-8-|
E|-6-6-6-6-----------8-8-8-8-8-8-8-|

e|---------------------------------------------|
B|---------------------------------------------|
G|--------------8-8-8-8-----------10-10-10-10--|
D|-10-10-10-10--8-8-8-8--8-8-8-8--10-10-10-10--|
A|-10-10-10-10--6-6-6-6--8-8-8-8--8--8--8--8---|
E|-10-10-10-10-----------8-8-8-8---------------|

e|---------------------------------|
B|---------------------------------|
G|----------8-8-8-8----------------|
D|-6-6-6-6--8-8-8-8--8-8-8-8-8-8-8-|
A|-6-6-6-6--6-6-6-6--8-8-8-8-8-8-8-|
E|-6-6-6-6-----------8-8-8-8-8-8-8-|

e|---------------------|
B|---------------------|
G|-5~------5~---5------|
D|-5~------5~--5-5--3~-|
A|-3~------3~-------3~-|
E|------------------3~-|


I'm not real sure on some of the picking parts towards then end, and i'm not real sure 
the solo but it hink it's right.  This is my first tab so leave a comment.  Thanx!
Добавлено: 22.07.2013
Другие материалы по этой песне:
  • Аккорды и текст

Страница создана 09.04.2012
http://primanota.ru/hinder/bliss-i-dont-wanna-know-chords.htm
Привет, Гость.
Предлагаем пройти революционный курс по гитаре.
Подарок от PrimaNota.Ru, забирай!