PrimaNota.ru - самый крупный в мире бесплатный архив песенных текстов, аккордов, табулатур и нот


Hilary Duff - Wierd - таба, видео

Регистрация Запомнить меня
Войти через:  Facebook Google Twitter Vk Yandex Mail.ru

Hilary Duff - Wierd - таба, видео

Печатать
Просмотров: 145
Уроки эстрадного вокала в Санкт-Петербурге
Esta muy facil, y estoy 100% seguro que asi va, solo escuchen muy bien la cancion y ya 
los tiempos
asi que ahi les va!!

/ = Slide up
* = Palm Mute
~ = Let Ring


Intro: (sin distorsion)
i Like the way you never sleep....
e|-------------------|
B|-------------------|
G|-------------------|  (x2)
D|-------------------|
A|-7-77/3-33---------|
E|-5-55/1-11---------|

i like the way you say hello...
e|----------------------|
B|----------------------|
G|----------------------|
D|--99-77-5555-77-777~--|
A|--77-55-3333-55-555~--|
E|----------------------|

Verso:
i like the scar above your lip...(esta parte ya lleva distorcion)
e|-------------------|
B|-------------------|
G|-------------------|
D|-------------------|
A|-77-77/33-33-------|
E|-55-55/11-11-------|
   ** ** ** **

but they are never...
e|------------------------------|
B|------------------------------|
G|------------------------------|
D|------------------------------|
A|--9999-7777-555555-7777-777~--|
E|--7777-5555-333333-5555-555~--|
    **** **** ****** ****
Coro:
Don't you think it's wierd...(empezar en "wierd")
e|--------------------------|
B|--------------------------|
G|---------555--------------|   (x2)
D|-777-333-555-555----------|
A|-777-333-333-555----------|
E|-555-111-----333----------|

that's what you are...(empezar en "are")
e|-------------------|
B|-------------------|
G|-------------------|
D|-2-2-3-3-4-4-3-3---|
A|--0-0-0-0-0-0-0-0--|
E|-------------------|

what i like about you (empezar en "you")
e|----------------|
B|----------------|
G|-777777---------|
D|-777777--5555---|
A|-555555--5555---|
E|---------3333---|

quedarse callado en "don't you think it's wierd" y luego tocar esto:
e|----------------|
B|-5~-1~-3~-------|
G|----------2~----|
D|----------------|
A|----------------|
E|----------------|

-Repetir lo mismo del verso
-Coro

Intermedio:
i wanna make some changes...
e|------------------|
B|------------------|
G|------------------|
D|------------------|
A|-55-3-5-3---3-----|
E|----------5-------|

i want my money back...
e|----------------|
B|----------------|
G|----------------|
D|----------------|
A|-55-3-5-3-------|
E|----------5~----|

e|----------------------|
B|----------------------|
G|----------------------|
D|----------------------|
A|-55-3-5-3-------------|
E|----------5-111-333---|

i wanna talk to strangers...
e|------------------|
B|------------------|
G|------------------|
D|------------------|
A|-55-3-5-3---3-----|
E|----------5-------|

e|----------------------|
B|----------------------|
G|----------------------|
D|----------------------|
A|-55-3-5-3-------------|
E|----------5-1-333333--|

luego de esto tocar la parte del coro 2 veces

y esto es toda la tablatura,, cualquier duda escribanme a tom_delongue1@hotmail.com
esta es mi primer tablatura y se la dedico a hilary duff, ya que soy su fan # 1
y que VIVA GUATEMALA culeros!!
Добавлено: 24.02.2012
Другие материалы по этой песне:
  • Аккорды и текст

Страница создана 24.02.2012
http://primanota.ru/hilary-duff/wierd-chords.htm
Привет, Гость.
Предлагаем пройти революционный курс по гитаре.
Подарок от PrimaNota.Ru, забирай!