PrimaNota.ru - самый крупный в мире бесплатный архив песенных текстов, аккордов, табулатур и нот


Helloween - The King For A 1000 Years - текст песни, таба, видео

Регистрация Запомнить меня
Войти через:  Facebook Google Twitter Vk Yandex Mail.ru

Helloween - The King For A 1000 Years - текст песни, таба, видео

Печатать
Просмотров: 237
Acoustic Guitar (steel, 12 strings)


      D#m                                 
      E    E    E   E   E    E   E   E    
D#||--7-------------8------------7-------|
A#||------(0)----------(0)----------(0)--|
F#||-----------(0)----------(0)----------|
C#||-------------------------------------|
G#||-------------------------------------|
D#||-------------------------------------|


  |----3---|   |----3---|   |----3---|            
  E   E    E   E   E    E   E   E    E   E   E    
--5------------3------------2------------0-------|
-----(0)----------(0)----------(0)----------(0)--|
----------(0)----------(0)----------(0)----------|
-------------------------------------------------|
-------------------------------------------------|
-------------------------------------------------|


  E   E    E   E   E    E   E   E    
--3------------5------------3-------|
-----(0)----------(0)----------(0)--|
----------(0)----------(0)----------|
------------------------------------|
------------------------------------|
------------------------------------|


  |----3---|   |----3---|                    
  E   E    E   E   E    E   E   E   E   E    
--2------------0----------------------------|
-----(0)----------(0)-------3-------0-------|
----------(0)----------(0)-----(0)-----(0)--|
--------------------------------------------|
--------------------------------------------|
--------------------------------------------|


  B                                             A#add13-             
  E   E    E   E   E    E   E   E      E  E  E  E        E  E  Q     
------------------------------------|-------------------------------|
--1------------0--------------------|-----1--------------0----------|
-----(0)----------(0)-------0-------|--------0--------------0-------|
----------(2)----------(2)-----(2)--|--------------------------4----|
------------------------------------|--3--------2-------------------|
------------------------------------|-------------------------------|


  D#m                                         
  ^                  ^                        
  H.           E     E      W                 
------------------<>12--|---L----------------|
------------------<>12--|---L----------------|
------------------------|--------------------|
------------------------|--------------------|
--2------------L--------|---L----------------|
--0------------L--------|---L----------------|


    D#m                                 
    E    E    E   E   E    E   E   E    
|---7-------------8------------7-------|
|-------(0)----------(0)----------(0)--|
|*-----------(0)----------(0)----------|
|*-------------------------------------|
|--------------------------------------|
|--------------------------------------|


  |----3---|   |----3---|   |----3---|            
  E   E    E   E   E    E   E   E    E   E   E    
--5------------3------------2------------0-------|
-----(0)----------(0)----------(0)----------(0)--|
----------(0)----------(0)----------(0)----------|
-------------------------------------------------|
-------------------------------------------------|
-------------------------------------------------|


  E   E    E   E   E    E   E   E    
--3------------5------------3-------|
-----(0)----------(0)----------(0)--|
----------(0)----------(0)----------|
------------------------------------|
------------------------------------|
------------------------------------|


  |----3---|   |----3---|                    
  E   E    E   E   E    E   E   E   E   E    
--2------------0----------------------------|
-----(0)----------(0)-------3-------0-------|
----------(0)----------(0)-----(0)-----(0)--|
--------------------------------------------|
--------------------------------------------|
--------------------------------------------|


  B                                             A#add13-             
  E   E    E   E   E    E   E   E      E  E  E  E        E  E  Q     
------------------------------------|-------------------------------|
--1------------0--------------------|-----1--------------0----------|
-----(0)----------(0)-------0-------|--------0--------------0-------|
----------(2)----------(2)-----(2)--|--------------------------4----|
------------------------------------|--3--------2-------------------|
------------------------------------|-------------------------------|


  D#m                                             G#m                       
  ^                  ^                                                      
  H.           E     E      W                     E   E  E  E  E  E  E  E   
------------------<>12--|---L-----------------||---------0-----------------|
------------------<>12--|---L-----------------||------------1-----------1--|
------------------------|--------------------*||---------------2-----2-----|
------------------------|--------------------*||------2-----------2--------|
--2------------L--------|---L-----------------||--0------------------------|
--0------------L--------|---L-----------------||---------------------------|


  B           C#             D#m                                           
                             ^        ^                                    
  E  E  E  E  E  E  E  E     H        H           E  E  E  E  E  E  E  E   
--------0-----------2-----|-----------0--------|--3-----------2-----------|
-----------1-----------3--|-----------0--------|-----0-----0-----0--------|
-----0-----------2--------|-----------0--------|--------0-----------------|
--------------0-----------|--2--------L--------|--------------------------|
--3-----------------------|--2--------L--------|--------------------0--2--|
--------------------------|--0--------L--------|--------------------------|


  B                         C#5                       
  Q    E  E  E  E  E  E     E   E  E  E  E  E  E  E   
-------------0-----------|---------------------------|
-------1--------1-----1--|---------------------------|
----------0--------0-----|--7---7--7--7--7-----------|
-------------------------|--7---7--7--7-----7-----7--|
--3----------------------|--5---5--5--5--------5-----|
-------------------------|---------------------------|


  B5                         C#5                        
  PM PM PM PM PM PM PM PM    PM  PM PM PM PM PM PM PM   
  E  E  E  E  E  E  E  E     E   E  E  E  E  E  E  E    
--------------------------|---------------------------||
--------------------------|---------------------------||
--------------------------|---------------------------||
--5--5--5--5--5--5--5--5--|--7---7--7--7--7--7--7--7--||
--3--3--3--3--3--3--3--3--|--5---5--5--5--5--5--5--5--||
--------------------------|---------------------------||




Duration Legend
---------------
W - whole
H - half
Q - quarter
E - 8th
S - 16th
T - 32nd
X - 64th
. - note dotted
|-n-|  - n-tuplets


Tablature Legend
----------------
L - tied note
x - dead note
g - grace note
(n) - ghost note
> - accentuded note
NH - natural harmonic
AH - artificial harmonic
TH - tapped harmonic
SH - semi harmonic
PH - pitch harmonic
h - hammer on
p - pull off
b - bend
br - bendRelease
pb - preBend
pbr - preBendRelease
brb - bendReleaseBend
\n/ - tremolo bar dip
\n - tremolo bar dive
-/n - tremolo bar Release up
/n\ - tremolo bar inverted dip
/n - tremolo bar return
-\n - tremolo bar Release down
S - shift slide
s - legato slide
/ -  slide into from below or out of upwards
\ -  slide into from above or out of downwards
~ - vibrato
W - wide vibrato
tr - trill
TP - tremolo picking
T - tapping
S - slap
P - pop
< - fade in
^ - brush up
v - brush down
Добавлено: 08.07.2012
Другие материалы по этой песне:

Страница создана 20.03.2012
http://primanota.ru/helloween/the-king-for-a-1000-years-chords.htm
Привет, Гость.
Предлагаем пройти революционный курс по гитаре.
Подарок от PrimaNota.Ru, забирай!