PrimaNota.ru - самый крупный в мире бесплатный архив песенных текстов, аккордов, табулатур и нот


Helloween - Save Us - текст песни, таба, бас-таба, видео

Регистрация Запомнить меня
Войти через:  Facebook Google Twitter Vk Yandex Mail.ru

Helloween - Save Us - текст песни, таба, бас-таба, видео

Печатать
Просмотров: 187
As recorded by Helloween
(From the 1988 Album KEEPER OF THE SEVEN KEYS PART II)

Transcribed by Asmogriff (ComfortablyDumb)
        

Words and Music by Kai Hansen

Gtr I (E A D G B E) - 'Dist'
Gtr II (E A D G B E) - 'Dist'
Gtr III (E A D G B E) - 'Dist'
Gtr IV (E A D G B E) - 'Dist'
Gtr V (E A D G B E) - 'Pick Slides'
Gtr VI (E A D G B E) - 'Organ'

 Intro
  Q=260
  N.C.
 4/4
  Gtr I
  Wx13
|---------|
|---------|
|---------|
|---------|
|---------|
|---------|


                                             1.               2.
    E5 F#5        E5 F#5        E5 F#5        A5   E5   B5     B5   A5   E5
    Q  H    E E   Q  H    E E   Q  H    E E   Q.   Q.   Q      Q.   Q.   Q
||--------------|-------------|-------------|---------------||---------------|
||o-------------|-------------|-------------|--------------o||---------------|
||--------------|-------------|-------------|---------------||---------------|
||--------------|-------------|-------------|-2---------4---||-4----2--------|
||o-2--4----4-4-|-2--4----4-4-|-2--4----4-4-|-0----2----2--o||-2----0----2---|
||--0--2----2-2-|-0--2----2-2-|-0--2----2-2-|------0--------||-----------0---|


  E5 F#5        E5   F#5        E5   F#5        A5   E5   B5
  Q  H    E E    Q   H    E E    Q   H    E E   Q.   Q.   Q
|-------------|---------------|---------------|---------------|
|-------------|---------------|---------------|---------------|
|-------------|---------------|---------------|---------------|
|-------------|---------------|---------------|-2---------4---|
|-2--4----4-4-|--2---4----4-4-|--2---4----4-4-|-0----2----2---|
|-0--2----2-2-|--0---2----2-2-|--0---2----2-2-|------0--------|
|
| Gtr II
| W             +W              +W              Q.   Q.   Q
|-------------|---------------|---------------|---------------|
|-------------|---------------|---------------|---------------|
|-------------|---------------|---------------|-2---------4---|
|-4-----------|-(4)-----------|-(4)-----------|-2----2----4---|
|-4-----------|-(4)-----------|-(4)-----------|-0----2----2---|
|-2-----------|-(2)-----------|-(2)-----------|------0--------|


  E5 F#5         E5   F#5        E5   F#5        B5   A5   E5
  Q  H     E E    Q   H    E E    Q   H    E E   Q.   Q.   Q
|--------------|---------------|---------------|---------------||
|--------------|---------------|---------------|---------------||
|--------------|---------------|---------------|---------------||
|--------------|---------------|---------------|-4----2--------||
|-2--4-----4-4-|--2---4----4-4-|--2---4----4-4-|-2----0----2---||
|-0--2-----2-2-|--0---2----2-2-|--0---2----2-2-|-----------0---||
|
| Q  H.          +W              +W              Q.   Q.   Q
|--------------|---------------|---------------|---------------||
|--------------|---------------|---------------|---------------||
|--------------|---------------|---------------|-4----2--------||
|-2--4---------|-(4)-----------|-(4)-----------|-4----2----2---||
|-2--4---------|-(4)-----------|-(4)-----------|-2----0----2---||
|-0--2---------|-(2)-----------|-(2)-----------|-----------0---||


   Pre-Verse
                                             1.               2.
    E5 F#5        E5 F#5        E5 F#5        A5   E5   B5     B5   A5   E5
    Q  H    E E   Q  H    E E   Q  H    E E   Q.   Q.   Q      Q.   Q.   Q
||--------------|-------------|-------------|---------------||---------------|
||o-------------|-------------|-------------|--------------o||---------------|
||--------------|-------------|-------------|-2---------4---||-4----2--------|
||--2--4----4-4-|-2--4----4-4-|-2--4----4-4-|-2----2----4---||-4----2----2---|
||o-2--4----4-4-|-2--4----4-4-|-2--4----4-4-|-0----2----2--o||-2----0----2---|
||--0--2----2-2-|-0--2----2-2-|-0--2----2-2-|------0--------||-----------0---|
|
|   W             W             W             W                W
||--------------|-------------|-------------|---------------||---------------|
||o-------------|-------------|-------------|--------------o||---------------|
||--------------|-------------|-------------|---------------||---------------|
||--------------|-------------|-------------|---------------||---------------|
||o-------------|-------------|-------------|--------------o||---------------|
||--------------|-------------|-------------|---------------||---------------|


    E5  F#5           E5  F#5
    Q   H       E E   Q   H       E E
||------------------|-----------------|
||o-----------------|-----------------|
||------------------|-----------------|
||--2---4-------4-4-|-2---4-------4-4-|
||o-2---4-------4-4-|-2---4-------4-4-|
||--0---2-------2-2-|-0---2-------2-2-|
|
|   E E E E E E E E   E E E E E E E E
||------------------|-----------------|
||o-----------------|-----------------|
||------------------|-----------------|
||------------------|-----------------|
||o-----------------|-----------------|
||--0-2-2-2-2-2-2-2-|-0-2-2-2-2-2-2-2-|


                   1.               2.
  E5  F#5           A5   E5   B5     B5   A5   E5
  Q   H       E E   Q.   Q.   Q      Q.   Q.   Q
|-----------------|---------------||---------------||
|-----------------|--------------o||---------------||
|-----------------|-2---------4---||-4----2--------||
|-2---4-------4-4-|-2----2----4---||-4----2----2---||
|-2---4-------4-4-|-0----2----2--o||-2----0----2---||
|-0---2-------2-2-|------0--------||-----------0---||
|
| E E E E E E E E   Q.   Q.   Q      Q.   Q.   Q
|-----------------|---------------||---------------||
|-----------------|--------------o||---------------||
|-----------------|---------------||---------------||
|-----------------|-2---------4---||-4----2--------||
|-----------------|-0----2----2--o||-2----0----2---||
|-0-2-2-2-2-2-2-2-|------0--------||-----------0---||


   Verse
    $
    $$
    E5 F#5        E5 F#5        E5 F#5        A5   E5   B5
    Q  H    E E   Q  H    E E   Q  H    E E   Q.   Q.   Q
||--------------|-------------|-------------|--------------|
||o-------------|-------------|-------------|--------------|
||--------------|-------------|-------------|-2---------4--|
||--2--4----4-4-|-2--4----4-4-|-2--4----4-4-|-2----2----4--|
||o-2--4----4-4-|-2--4----4-4-|-2--4----4-4-|-0----2----2--|
||--0--2----2-2-|-0--2----2-2-|-0--2----2-2-|------0-------|
|
|   Q  H    E E   Q  H    E E   Q  H    E E   Q.   Q.   Q
||--------------|-------------|-------------|--------------|
||o-------------|-------------|-------------|--------------|
||--------------|-------------|-------------|-2---------4--|
||--2--4----4-4-|-2--4----4-4-|-2--4----4-4-|-2----2----4--|
||o-2--4----4-4-|-2--4----4-4-|-2--4----4-4-|-0----2----2--|
||--0--2----2-2-|-0--2----2-2-|-0--2----2-2-|------0-------|


  1.
  N.C.                                                   B5   A5   E5
  PM------------|              PM--------------------|
  E E E E E E E E   Q  E E +E  E E E   E E E E E E E E   Q.   Q.   Q
|-----------------|------------------|-----------------|----------------||
|-----------------|------------------|-----------------|---------------o||
|-----------------|------------------|-----------------|-4----2---------||
|-----------------|------------------|-----------------|-4----2----2----||
|-----------------|------------------|-----------------|-2----0----2---o||
|-0-0-0-0-0-0-0-0-|-5--0-4-(4)-0-0-0-|-0-2-2-2-2-2-2-2-|-----------0----||
|
| PM------------|              PM--------------------|
| E E E E E E E E   Q  E E +E  E E E   E E E E E E E E   Q.   Q.   Q
|-----------------|------------------|-----------------|----------------||
|-----------------|------------------|-----------------|---------------o||
|-----------------|------------------|-----------------|-4----2---------||
|-----------------|------------------|-----------------|-4----2----2----||
|-----------------|------------------|-----------------|-2----0----2---o||
|-0-0-0-0-0-0-0-0-|-5--0-4-(4)-0-0-0-|-0-2-2-2-2-2-2-2-|-----------0----||


  2.
  N.C.
       PM|   PM|     PM|   PM|            PM|   PM|
  Q  E E E E E E   E E E E E E Q     Q  E E E E E E
|----------------|-----------------|----------------|
|----9-----9-----|-9-----9-----9\--|----7-----7-----|
|----------------|-----------------|----------------|
|-6----6-6---6-6-|---6-6---6-6-----|-4----4-4---4-4-|
|----------------|-----------------|----------------|
|----------------|-----------------|----------------|
|
|      PM|   PM|     PM|   PM|            PM|   PM|
| Q  E E E E E E   E E E E E E Q     Q  E E E E E E
|----------------|-----------------|----------------|
|----------------|-----------------|----------------|
|----9-----9-----|-9-----9-----9\--|----7-----7-----|
|----------------|-----------------|----------------|
|-7----7-7---7-7-|---7-7---7-7-----|-5----5-5---5-5-|
|----------------|-----------------|----------------|


    PM|   PM|            PM|   PM|
  E E E E E E E E   Q  E E E E E E
|-----------------|------------------|
|-7-----7-----7---|----7-----7-------|
|-----------------|------------------|
|---4-4---4-4-----|-4----4-4---4-4---|
|-----------------|------------------|
|-----------------|------------------|
|
|   PM|   PM|            PM|   PM|
| E E E E E E E E   Q  E E E E E E
|-----------------|------------------|
|-----------------|------------------|
|-7-----7-----7---|----7-----7-------|
|-----------------|------------------|
|---5-5---5-5-----|-5----5-5---5-5---|
|-----------------|------------------|


         B5      E5 F#5        E5 F#5        E5 F#5        A5   E5   B5
  E E Q  H       Q  H    E E   Q  H    E E   Q  H    E E   Q.   Q.   Q
|--------------|-------------|-------------|-------------|----------------||
|-7------------|-------------|-------------|-------------|----------------||
|--------------|-------------|-------------|-------------|-2---------4----||
|--------------|-2--4----4-4-|-2--4----4-4-|-2--4----4-4-|-2----2----4----||
|--------9\----|-2--4----4-4-|-2--4----4-4-|-2--4----4-4-|-0----2----2----||
|--------7\----|-0--2----2-2-|-0--2----2-2-|-0--2----2-2-|------0---------||
|
| E E Q  H       Q  H    E E   Q  H    E E   Q  H    E E   Q.   Q.   Q
|--------------|-------------|-------------|-------------|----------------||
|--------------|-------------|-------------|-------------|----------------||
|-7------------|-------------|-------------|-------------|-2---------4----||
|--------------|-2--4----4-4-|-2--4----4-4-|-2--4----4-4-|-2----2----4----||
|--------9\----|-2--4----4-4-|-2--4----4-4-|-2--4----4-4-|-0----2----2----||
|--------7\----|-0--2----2-2-|-0--2----2-2-|-0--2----2-2-|------0---------||


   Chorus
    N.C.
    PM------------------------------|
    E E E E E E E E   E E E E E E E E
||------------------|-----------------|
||o-----------------|-----------------|
||------------------|-----------------|
||------------------|-----------------|
||o-----------------|-----------------|
||--0-0-0-0-0-0-0-0-|-0-0-0-0-0-0-0-0-|
|
|   PM------------------------------|
|   E E E E E E E E   E E E E E E E E
||------------------|-----------------|
||o-----------------|-----------------|
||------------------|-----------------|
||------------------|-----------------|
||o-----------------|-----------------|
||--0-0-0-0-0-0-0-0-|-0-0-0-0-0-0-0-0-|


  D  E            D5   D5   B5
        PM----|                  PM------------|
  Q  Q  E E E E   Q.   Q.   Q    E E E E E E E E
|---------------|--------------|------------------|
|-7--9----------|--------------|------------------|
|-7--9----------|-7----7----4--|------------------|
|-7--9----------|-7----7----4--|------------------|
|-5--7----------|-5----5----2--|------------------|
|-------0-0-0-0-|--------------|-0-0-0-0-0-0-0-0--|
|
|       PM----|                  PM------------|
| Q  Q  E E E E   Q.   Q.   Q    E E E E E E E E
|---------------|--------------|------------------|
|-7--9----------|--------------|------------------|
|-7--9----------|-7----7----4--|------------------|
|-7--9----------|-7----7----4--|------------------|
|-5--7----------|-5----5----2--|------------------|
|-------0-0-0-0-|--------------|-0-0-0-0-0-0-0-0--|


                   1.
                    Dsus4D    Dsus4    D
  PM------------|
  E E E E E E E E   Q.   Q.   Q    +E  Q.   Q  Q
|-----------------|--------------|-----------------||
|-----------------|-8----7----8--|-(8)-7----7--7--o||
|-----------------|-7----7----7--|-(7)-7----7--7---||
|-----------------|-7----7----7--|-(7)-7----7--7---||
|-----------------|-5----5----5--|-(5)-5----5--5--o||
|-0-0-0-0-0-0-0-0-|--------------|-----------------||
|
| PM------------|
| E E E E E E E E   Q.   Q.   Q    +E  Q.   Q  Q
|-----------------|--------------|-----------------||
|-----------------|-8----7----8--|-(8)-7----7--7--o||
|-----------------|-7----7----7--|-(7)-7----7--7---||
|-----------------|-7----7----7--|-(7)-7----7--7---||
|-----------------|-5----5----5--|-(5)-5----5--5--o||
|-0-0-0-0-0-0-0-0-|--------------|-----------------||


 2.
                            D.S.
                            D.S.
  Dsus4D    Dsus4    D    D5
  Q.   Q.   Q    +E  Q.   Q  Q
|--------------|-------------------||
|-8----7----8--|-(8)-7-------------||
|-7----7----7--|-(7)-7----7--------||
|-7----7----7--|-(7)-7----7--------||
|-5----5----5--|-(5)-5----5--------||
|--------------|-------------7\----||
|
| Q.   Q.   Q    +E  Q.   Q  Q
|--------------|-------------------||
|-8----7----8--|-(8)-7-------------||
|-7----7----7--|-(7)-7----7--------||
|-7----7----7--|-(7)-7----7--------||
|-5----5----5--|-(5)-5----5--------||
|--------------|-------------7\----||


 Bridge
  N.C.
   ~~~~~~~~~~~~~~~~            ~~~~~~~~~~~~~~~~
   W           +H.       Q     W           +Q    H     Q
|-----------|---------------|-----------|------------------|
|-----------|---------------|-----------|------------------|
|-11--------|-(11)----------|--9--------|--(9)---8-----9---|
|-----------|-----------11--|-----------|------------------|
|-----------|---------------|-----------|------------------|
|-----------|---------------|-----------|------------------|
|
|  ~~~~~~~~~~~~~~~~            ~~~~~~~~~~~~~~~~
|  W           +H.       Q     W           +Q    H     Q
|--9--------|--(9)----------|-----------|-------11----12---|
|-----------|------------9--|-12--------|-(12)-------------|
|-----------|---------------|-----------|------------------|
|-----------|---------------|-----------|------------------|
|-----------|---------------|-----------|------------------|
|-----------|---------------|-----------|------------------|
|
| Gtr III
|  ~~~~~~~~~~~~~~~~            ~~~~~~~~~~~~~~~~
|  W           +H.       Q     W           +Q    H     Q
|-----------|---------------|-----------|--------------9---|
|-10--------|-(10)----------|--9--------|--(9)--12---------|
|-----------|-----------11--|-----------|------------------|
|-----------|---------------|-----------|------------------|
|-----------|---------------|-----------|------------------|
|-----------|---------------|-----------|------------------|


  N.C.
       ~~~~~~~~~~~~~~~            ~~~~~~~~~~~~~~~~
  E E  H.         +H.       Q     W           +Q    H     Q
|--------------|---------------|-----------|------------------|
|--------------|---------------|-----------|------------------|
|-----11-------|-(11)----------|--9--------|--(9)---8-----9---|
|--------------|-----------11--|-----------|------------------|
|-x-x----------|---------------|-----------|------------------|
|-x-x----------|---------------|-----------|------------------|
|
|      ~~~~~~~~~~~~~~~            ~~~~~~~~~~~~~~~~
| Q    H.         +H.       Q     W           +Q    H     Q
|------9-------|--(9)----------|-----------|-------11----12---|
|--------------|------------9--|-12--------|-(12)-------------|
|--------------|---------------|-----------|------------------|
|--------------|---------------|-----------|------------------|
|--------------|---------------|-----------|------------------|
|--------------|---------------|-----------|------------------|
|
|      ~~~~~~~~~~~~~~~            ~~~~~~~~~~~~~~~~
| Q    H.         +H.       Q     W           +Q    H     Q
|--------------|---------------|-----------|--------------9---|
|-----10-------|-(10)----------|--9--------|--(9)--12---------|
|--------------|-----------11--|-----------|------------------|
|--------------|---------------|-----------|------------------|
|--------------|---------------|-----------|------------------|
|--------------|---------------|-----------|------------------|


  N.C.
       ~~~~~~~~~~~~~~~                ~~~~~~~~~~~~~~~
  E E  H.         +H.       Q    E E  H.         +Q    H     Q
|--------------|---------------|--------------|------------------|
|--------------|---------------|--------------|------------------|
|-----11-------|-(11)----------|------9-------|--(9)---8-----9---|
|--------------|-----------11--|--------------|------------------|
|-x-x----------|---------------|-x-x----------|------------------|
|-x-x----------|---------------|-x-x----------|------------------|
|
|      ~~~~~~~~~~~~~~~                ~~~~~~~~~~~~~~~
| Q    H.         +H.       Q    Q    H.         +Q    H     Q
|------9-------|--(9)----------|--------------|-------11----12---|
|--------------|------------9--|-----12-------|-(12)-------------|
|--------------|---------------|--------------|------------------|
|--------------|---------------|--------------|------------------|
|--------------|---------------|--------------|------------------|
|--------------|---------------|--------------|------------------|
|
|      ~~~~~~~~~~~~~~~                ~~~~~~~~~~~~~~~
| Q    H.         +H.       Q    Q    H.         +Q    H     Q
|--------------|---------------|--------------|--------------9---|
|-----10-------|-(10)----------|------9-------|--(9)--12---------|
|--------------|-----------11--|--------------|------------------|
|--------------|---------------|--------------|------------------|
|--------------|---------------|--------------|------------------|
|--------------|---------------|--------------|------------------|


  N.C.
       ~~~~~~~~~~~~~~~                ~~~~~~~~~~~~~~~
  E E  H.         +H.       Q    E E  H.         +H.      Q
|--------------|---------------|--------------|---------------||
|--------------|---------------|--------------|---------------||
|-----11-------|-(11)----------|------9-------|--(9)----------||
|--------------|-----------11--|--------------|---------------||
|-x-x----------|---------------|-x-x----------|---------------||
|-x-x----------|---------------|-x-x----------|---------------||
|
|      ~~~~~~~~~~~~~~~                ~~~~~~~~~~~~~~~
| Q    H.         +H.       Q    Q    H.         +H.      Q
|------9-------|--(9)----------|--------------|---------------||
|--------------|------------9--|-----12-------|-(12)----------||
|--------------|---------------|--------------|---------------||
|--------------|---------------|--------------|---------------||
|--------------|---------------|--------------|---------------||
|--------------|---------------|--------------|---------------||
|
|      ~~~~~~~~~~~~~~~                ~~~~~~~~~~~~~~~
| Q    H.         +H.       Q    Q    H.         +H.      Q
|--------------|---------------|--------------|---------------||
|-----10-------|-(10)----------|------9-------|--(9)----------||
|--------------|-----------11--|--------------|---------------||
|--------------|---------------|--------------|---------------||
|--------------|---------------|--------------|---------------||
|--------------|---------------|--------------|---------------||


   Verse
    N.C.
    Gtr IV
     E E E E E E E E     E  E E E E E E E
     | | | | | | | |     |  | | | | | | |
     o / / / / / / /     /  / / / / / / /

     W                  +W
||-------------------|--------------------|
||o-10---------------|-(10)---------------|
||-------------------|--------------------|
||-------------------|--------------------|
||o------------------|--------------------|
||-------------------|--------------------|
|
|    W                  +W
||-------------------|--------------------|
||o------------------|--------------------|
||---9---------------|--(9)---------------|
||-------------------|--------------------|
||o------------------|--------------------|
||-------------------|--------------------|
|
|    W                  +W
||-------------------|--------------------|
||o------------------|--------------------|
||-------------------|--------------------|
||--11---------------|-(11)---------------|
||o------------------|--------------------|
||-------------------|--------------------|


   E E E E E E E E     E  E E E E E E E
   | | | | | | | |     |  | | | | | | |
   o / / / / / / /     /  / / / / / / /

   W                  +W
|-12---------------|-(12)---------------|
|------------------|--------------------|
|------------------|--------------------|
|------------------|--------------------|
|------------------|--------------------|
|------------------|--------------------|
|
|  W                  +W
|------------------|--------------------|
|-12---------------|-(12)---------------|
|------------------|--------------------|
|------------------|--------------------|
|------------------|--------------------|
|------------------|--------------------|
|
|  W                  +W
|------------------|--------------------|
|--9---------------|--(9)---------------|
|------------------|--------------------|
|------------------|--------------------|
|------------------|--------------------|
|------------------|--------------------|


  1.
  N.C.
   E E E E E E E E     E  E E E  E E E E
   | | | | | | | |     |  | | |  | | | |
   o / / / / / / /     /  / / /  o / / /

   W                  +H         H
|-10---------------|-(10)----------------|
|------------------|------------14-------|
|------------------|---------------------|
|------------------|---------------------|
|------------------|---------------------|
|------------------|---------------------|
|
|  W                  +H         H
|------------------|---------------------|
|-10---------------|-(10)----------------|
|------------------|------------13-------|
|------------------|---------------------|
|------------------|---------------------|
|------------------|---------------------|
|
|  W                  +H         H
|------------------|---------------------|
|------------------|---------------------|
|-11---------------|-(11)--------9-------|
|------------------|---------------------|
|------------------|---------------------|
|------------------|---------------------|


   E E E E E E E E     E  E E E E E E E
   | | | | | | | |     |  | | | | | | |
   o / / / / / / /     /  / / / / / / /

   W                  +W
|-14---------------|-(14)-----------------||
|------------------|---------------------o||
|------------------|----------------------||
|------------------|----------------------||
|------------------|---------------------o||
|------------------|----------------------||
|
|  W                  +W
|------------------|----------------------||
|-14---------------|-(14)----------------o||
|------------------|----------------------||
|------------------|----------------------||
|------------------|---------------------o||
|------------------|----------------------||
|
|  W                  +W
|------------------|----------------------||
|-10---------------|-(10)----------------o||
|------------------|----------------------||
|------------------|----------------------||
|------------------|---------------------o||
|------------------|----------------------||


  2.
  C#5  B5   C#5                    C#5  B5   C#5
               Gtr V             Gtr I          Gtr V
                   TPTPTPTPTPTPTP                   TPTPTPTPTPTPTP
  Q.   Q  E Q    E E E E E E E E   Q.   Q  E Q    E E E E E E E E
|--------------|---xsxsxsxsxsxsx-|--------------|---xsxsxsxsxsxsx--||
|--------------|---xsxsxsxsxsxsx-|--------------|---xsxsxsxsxsxsx--||
|-6----4--4-6--|-----------------|-6----4--4-6--|------------------||
|-6----4--4-6--|-----------------|-6----4--4-6--|------------------||
|-4----2--2-4--|-----------------|-4----2--2-4--|------------------||
|--------------|-----------------|--------------|------------------||
|
|              Gtr V             Gtr II         Gtr V
|                  TPTPTPTPTPTPTP                   TPTPTPTPTPTPTP
| Q.   Q  E Q    E E E E E E E E   Q.   Q  E Q    E E E E E E E E
|--------------|---xsxsxsxsxsxsx-|--------------|---xsxsxsxsxsxsx--||
|--------------|---xsxsxsxsxsxsx-|--------------|---xsxsxsxsxsxsx--||
|-6----4--4-6--|-----------------|-6----4--4-6--|------------------||
|-6----4--4-6--|-----------------|-6----4--4-6--|------------------||
|-4----2--2-4--|-----------------|-4----2--2-4--|------------------||
|--------------|-----------------|--------------|------------------||


   Interlude
    N.C.
    Gtr I
                                           ~~~~~~~~~~~~~~
    E E E E E E E E   E E E E E E E E   Q  H.        +W
||------------------|-----------------|------------|--------|
||o-7-7-7-7-7-7-7-7-|-7-7-7-7-7-7-7-7-|-7----------|--------|
||------------------|-----------------|----8-------|-(8)----|
||------------------|-----------------|------------|--------|
||o-----------------|-----------------|------------|--------|
||------------------|-----------------|------------|--------|
|
|   Gtr II
|                                          ~~~~~~~~~~~~~~
|   E E E E E E E E   E E E E E E E E   Q  H.        +W
||------------------|-----------------|------------|--------|
||o-4-4-4-4-4-4-4-4-|-4-4-4-4-4-4-4-4-|-4----------|--------|
||------------------|-----------------|----4-------|-(4)----|
||------------------|-----------------|------------|--------|
||o-----------------|-----------------|------------|--------|
||------------------|-----------------|------------|--------|


  N.C.
                                      ~~~~~~~~~~~~~~~
  E E E E E E E E   E E E E E E E E   W          +H.      Q
|-----------------|-----------------|----------|-------------|
|-6-6-6-6-6-6-6-6-|-6-6-6-6-6-7-6---|----------|-------------|
|-----------------|---------------8-|-7--------|-(7)------7--|
|-----------------|-----------------|----------|-------------|
|-----------------|-----------------|----------|-------------|
|-----------------|-----------------|----------|-------------|
|
|                                     ~~~~~~~~~~~~~~~
| E E E E E E E E   E E E E E E E E   W          +H.      Q
|-----------------|-----------------|----------|-------------|
|-----------------|-----------4-----|----------|-------------|
|-4h6-6-6-6-6-6-6-|-6-6-6-6-6---6-4-|-3--------|-(3)------3--|
|-----------------|-----------------|----------|-------------|
|-----------------|-----------------|----------|-------------|
|-----------------|-----------------|----------|-------------|


  N.C.
  E E E E E E E E   E E E E E E E E   H    H       H     H
|-----------------|-----------------|-----------|-------------|
|-----------------|-----------------|-----------|-------------|
|-7S8-8-8-8-8-8-8-|-8-8-8-8-8-8-8-8-|-8---------|-------------|
|-----------------|-----------------|------9----|-12----13----|
|-----------------|-----------------|-----------|-------------|
|-----------------|-----------------|-----------|-------------|
|
| E E E E E E E E   E E E E E E E E   H    H       H     H
|-----------------|-----------------|-----------|-------------|
|-----------------|-----------------|-----------|-------------|
|-3S4-4-4-4-4-4-4-|-4-4-4-4-4-4-4-4-|-4---------|-------------|
|-----------------|-----------------|------6----|--8-----9----|
|-----------------|-----------------|-----------|-------------|
|-----------------|-----------------|-----------|-------------|


  N.C.
                                         |--3--|  |--3--|
   E  E  E  E  E  E  E  E    E  E  E  E  E  E  E  E  E  E
|-------------------------|-------------------------------|
|-------------------------|----15h16p15----------15h16p15-|
|-------------------15h16p|=15----------15h16p15----------|
|-12h13p12-15h16p15-------|-------------------------------|
|-------------------------|-------------------------------|
|-------------------------|-------------------------------|
|
|                                        |--3--|  |--3--|
|  E  E  E  E  E  E  E  E    E  E  E  E  E  E  E  E  E  E
|-------------------------|-------------------------------|
|-------------------------|----11h12p11----------11h12p11-|
|-----------7h=8p=7-10h11p|=10----------10h11p10----------|
|--8h=9p=8----------------|-------------------------------|
|-------------------------|-------------------------------|
|-------------------------|-------------------------------|


   Q.       Q.       Q         +H       H
|----------18tr19---22------|-(22)\-----------||
|-18tr19--------------------|----------------o||
|---------------------------|-----------------||
|---------------------------|-----------------||
|---------------------------|----------------o||
|---------------------------|-----------------||
|
|  Q.       Q.       Q         +H       H
|-10tr11---13tr14---16b18===|=(16)r\----------||
|---------------------------|----------------o||
|---------------------------|-----------------||
|---------------------------|-----------------||
|---------------------------|----------------o||
|---------------------------|-----------------||


 Guitar Solo
  C
  Gtr I
   ~~~                                        ~~~~
   H.            a      +Q       +Q     Q    +H
|-----------------------------|------------------------|
|-13------------13b16==(13)r==|=(13)---11---(11)-------|
|-----------------------------|------------------------|
|-----------------------------|------------------------|
|-----------------------------|------------------------|
|-----------------------------|------------------------|
|
| Gtr II
|  PM---------------------------------------------------
|  E  E E E E E          E  E     E  E  E E   E  E E E
|-----------------------------|------------------------|
|-----------------------------|------------------------|
|-----------------------------|------------------------|
|-----------------------------|------------------------|
|-----------------------------|------------------------|
|--8--8-8-8-8-8----------8--8-|---8--8--8-8---8--8-8-8-|
|
| Gtr VI
|  W                             +W
|--8--------------------------|--(8)-------------------|
|--8--------------------------|--(8)-------------------|
|--8--------------------------|--(8)-------------------|
|-----------------------------|------------------------|
|-----------------------------|------------------------|
|-----------------------------|------------------------|


         Ab                       Ab5             Bb5
                                   \3_________/
   a      +H.            +E   E    H         +Q    E E
|-------------------------------|-----------------------|
|-13b16==(13)r==========(13)p11-|-13--------(13)--11p8--|
|-------------------------------|-----------------------|
|-------------------------------|-----------------------|
|-------------------------------|-----------------------|
|-------------------------------|-----------------------|
|
|----------------------------|
|          E  E E E E E   E   E    Q.    Q.        Q
|-------------------------------|-----------------------|
|-------------------------------|-----------------------|
|-------------------------------|-----------------------|
|-------------------------------|-----------------------|
|-------------------------------|--6-----6---------8----|
|----------4--4-4-4-4-4---4---4-|--4-----4---------6----|
|
|          W                      +W
|----------8--------------------|-(8)-------------------|
|----------9--------------------|-(9)-------------------|
|----------8--------------------|-(8)-------------------|
|-------------------------------|-----------------------|
|-------------------------------|-----------------------|
|-------------------------------|-----------------------|


  C5
   \1/   \1/   \1/   \1/      \1/   \1/   \1/   \1/
   Q     Q     Q     Q        Q     Q     Q     Q
|--------------------------|--------------------------|
|-13----11-----9-----8-----|--------------------------|
|--------------------------|-10-----8-----7-----8-----|
|--------------------------|--------------------------|
|--------------------------|--------------------------|
|--------------------------|--------------------------|
|
|        PM--------------------------------------------
|  Q     E   E E   E E   E    E   E E   E E   E E   E
|--------------------------|--------------------------|
|--------------------------|--------------------------|
|--------------------------|--------------------------|
|--------------------------|--------------------------|
|-10-----------------------|--------------------------|
|--8-----8---8-8---8-8---8-|--8---8-8---8-8---8-8---8-|
|
|  W                         +W
|--8-----------------------|-(8)----------------------|
|--8-----------------------|-(8)----------------------|
|--8-----------------------|-(8)----------------------|
|--------------------------|--------------------------|
|--------------------------|--------------------------|
|--------------------------|--------------------------|


  Ab                          Ab5         Bb5
   \1/   \1/   \1/    \1/      \1/
                               ~~~~
   Q     Q     Q      Q        H.         E  E
|---------------------------|---------------11--|
|--------8-----9-----11-----|-13----------------|
|-10------------------------|-------------------|
|---------------------------|-------------------|
|---------------------------|-------------------|
|---------------------------|-------------------|
|
|-------------------------|
|  E   E E   E E   E  E   E    Q.    Q.   Q
|---------------------------|-------------------|
|---------------------------|-------------------|
|---------------------------|-------------------|
|---------------------------|-------------------|
|---------------------------|--6-----6----8-----|
|--4---4-4---4-4---4--4---4-|--4-----4----6-----|
|
|  W                          +W
|--8------------------------|-(8)---------------|
|--9------------------------|-(9)---------------|
|--8------------------------|-(8)---------------|
|---------------------------|-------------------|
|---------------------------|-------------------|
|---------------------------|-------------------|


  C5
   E  E  S  S  S  S  E  E  S  S  S  S    E   E  E  E  E  E  E  E
|-15p11----------11h15p11----------11h|=15p=11-------15p11h15----|
|-------13----13----------13----13----|--------13-------------13-|
|----------12----------------12-------|-----------12-------------|
|-------------------------------------|--------------------------|
|-------------------------------------|--------------------------|
|-------------------------------------|--------------------------|
|
|        PM-------------------------------------------------------
|  Q     E     E     E  E  E     E       E   E  E  E  E  E  E  E
|-------------------------------------|--------------------------|
|-------------------------------------|--------------------------|
|-------------------------------------|--------------------------|
|-------------------------------------|--------------------------|
|-10----------------------------------|--------------------------|
|--8-----8-----8-----8--8--8-----8----|--8---8--8--8--8--8--8--8-|
|
|  W                                    +W
|--8----------------------------------|-(8)----------------------|
|--8----------------------------------|-(8)----------------------|
|--8----------------------------------|-(8)----------------------|
|-------------------------------------|--------------------------|
|-------------------------------------|--------------------------|
|-------------------------------------|--------------------------|


  Ab                                            Ab5
   |---3---|  |---3---|  |---3---|  |---3---|    |--3---|  |---3----|
   E  E    E  E  E    E  E  E    E  E  E    E    E   E  E  E  E     E  Q    Q
|-16p11---------------------------------------|-----------------------16---------|
|---------13-16p13--------------13h16p13------|--------13h16p13-----------/21----|
|--------------------13----13--------------13-|-----13-------------13------------|
|-----------------------13--------------------|-13-------------------------------|
|---------------------------------------------|----------------------------------|
|---------------------------------------------|----------------------------------|
|
|----------------------------------------|
|  E    E     E    E     E    E     E    E       Q.             Q.          Q
|---------------------------------------------|----------------------------------|
|---------------------------------------------|----------------------------------|
|---------------------------------------------|----------------------------------|
|---------------------------------------------|----------------------------------|
|---------------------------------------------|--6--------------6-----------6----|
|--4----4-----4----4-----4----4-----4----4----|--4--------------4-----------4----|
|
|  W                                            +W
|--8------------------------------------------|-(8)------------------------------|
|--9------------------------------------------|-(9)------------------------------|
|--8------------------------------------------|-(8)------------------------------|
|---------------------------------------------|----------------------------------|
|---------------------------------------------|----------------------------------|
|---------------------------------------------|----------------------------------|


  F5                                G
         \1/       \1/     \1/
                                                             ~~~
   H     H         H       H         H       +E   E  E  E    W
|---------------|-----------------|-15------(15)h16p15p13-|-15----------------||
|-13----15------|-16------13------|-----------------------|-------------------||
|---------------|-----------------|-----------------------|-------------------||
|---------------|-----------------|-----------------------|-------------------||
|---------------|-----------------|-----------------------|-------------------||
|---------------|-----------------|-----------------------|-------------------||
|
|                                         PM|        PM|        PM|   PM|
|  W              +W                 Q  E E   E   E  E  E    E  E E E E E Q
|---------------|-----------------|-----------------------|-------------------||
|---------------|-----------------|-----------------------|-------------------||
|---------------|-----------------|-----------------------|-------------------||
|---------------|-----------------|-----5---------5-------|--5------5-----5---||
|--3------------|-(3)-------------|-----------------------|-------------------||
|--1------------|-(1)-------------|--3----3---3------3--3-|-----3-3---3-3-----||
|
|  W              +W                 W                      +W
|--8------------|-(8)-------------|--8--------------------|-(8)---------------||
|--9------------|-(9)-------------|--8--------------------|-(8)---------------||
|--8------------|-(8)-------------|--7--------------------|-(7)---------------||
|---------------|-----------------|-----------------------|-------------------||
|---------------|-----------------|-----------------------|-------------------||
|---------------|-----------------|-----------------------|-------------------||


 Guitar Solo 2
  C
   Q        +H.              Q     Q    +Q.     E
|-------------------------|-----------------------|
|-------------------------|-----------------------|
|-10b12====(10)h==========|=13p===10r==(10)-----8-|
|-------------------------|-----------------------|
|-------------------------|-----------------------|
|-------------------------|-----------------------|
|
|  PM----------------------------------------------
|  E     E   E  E E E E E    E  E  E E   E  E E E
|-------------------------|-----------------------|
|-------------------------|-----------------------|
|-------------------------|-----------------------|
|-------------------------|-----------------------|
|-------------------------|-----------------------|
|--8-----8---8--8-8-8-8-8-|--8--8--8-8---8--8-8-8-|
|
|  W                        +W
|--8----------------------|-(8)-------------------|
|--8----------------------|-(8)-------------------|
|--8----------------------|-(8)-------------------|
|-------------------------|-----------------------|
|-------------------------|-----------------------|
|-------------------------|-----------------------|


         Ab                      Ab5                    Bb5
                                  ~~~
   a      +H.            +E  E    H        +E       +E   +Q
|------------------------------|------------------------------|
|------------------------------|------------------------------|
|-10b12==(10)r==========(10)p8-|-10-------(10)b12==(10)r(10)--|
|------------------------------|------------------------------|
|------------------------------|------------------------------|
|------------------------------|------------------------------|
|
|----------------------------|
|          E  E E E E E   E  E    Q.   Q.                 Q
|------------------------------|------------------------------|
|------------------------------|------------------------------|
|------------------------------|------------------------------|
|------------------------------|------------------------------|
|------------------------------|--6----6------------------8---|
|----------4--4-4-4-4-4---4--4-|--4----4------------------6---|
|
|          W                     +W
|----------8-------------------|-(8)--------------------------|
|----------9-------------------|-(9)--------------------------|
|----------8-------------------|-(8)--------------------------|
|------------------------------|------------------------------|
|------------------------------|------------------------------|
|------------------------------|------------------------------|


  C5
   |--3--|  |--3---|  |---3---|  |--3---|
   E  E  E  E  E   E  E  E    E  E  E   E    S   S S S  S S S S +E    E  E E
|-10-10-10-11-10---8-10-10---10-11-10---8-|----------------------------------|
|-----------------------------------------|-11--11-9-9-11-9-8-8-(8)\---------|
|-----------------------------------------|--------------------------/8h10p8-|
|-----------------------------------------|----------------------------------|
|-----------------------------------------|----------------------------------|
|-----------------------------------------|----------------------------------|
|
|           PM----------------------------------------------------------------
|  Q        E    E    E    E     E    E      E     E    E   E    E    E  E E
|-----------------------------------------|----------------------------------|
|-----------------------------------------|----------------------------------|
|-----------------------------------------|----------------------------------|
|-----------------------------------------|----------------------------------|
|-10--------------------------------------|----------------------------------|
|--8--------8----8----8----8-----8----8---|--8-----8----8---8----8----8--8-8-|
|
|  W                                        +W
|--8--------------------------------------|-(8)------------------------------|
|--8--------------------------------------|-(8)------------------------------|
|--8--------------------------------------|-(8)------------------------------|
|-----------------------------------------|----------------------------------|
|-----------------------------------------|----------------------------------|
|-----------------------------------------|----------------------------------|


         Ab                      Ab5             Bb5
                                  ~~~
   a      +H.            +E  E    H        +E  E  E  E
|------------------------------|-----------------11p10---|
|------------------------------|-------------------------|
|-10b12==(10)r==========(10)p8-|-10-------(10)p8---------|
|------------------------------|-------------------------|
|------------------------------|-------------------------|
|------------------------------|-------------------------|
|
|----------------------------|
|          E  E E E E E   E  E    Q.   Q.         Q
|------------------------------|-------------------------|
|------------------------------|-------------------------|
|------------------------------|-------------------------|
|------------------------------|-------------------------|
|------------------------------|--6----6----------8------|
|----------4--4-4-4-4-4---4--4-|--4----4----------6------|
|
|          W                     +W
|----------8-------------------|-(8)---------------------|
|----------9-------------------|-(9)---------------------|
|----------8-------------------|-(8)---------------------|
|------------------------------|-------------------------|
|------------------------------|-------------------------|
|------------------------------|-------------------------|


  C5
   |--3--|  |---3---|  |---3---|  |---3---|    |---3----|  |---3---|  |---3---|  |---3---|
   E  E  E  E  E    E  E  E    E  E  E    E    E   E    E  E  E    E  E  E    E  E  E    E
|-11-11-11-13-11---10-11-11---11-13-11---10-|-13--13---13-15-13---11-13-13---13-15-13---11-|
|-------------------------------------------|----------------------------------------------|
|-------------------------------------------|----------------------------------------------|
|-------------------------------------------|----------------------------------------------|
|-------------------------------------------|----------------------------------------------|
|-------------------------------------------|----------------------------------------------|
|
|           PM------------------------------------------------------------------------------
|  Q        E    E     E    E     E    E       E     E     E    E     E    E     E    E
|-------------------------------------------|----------------------------------------------|
|-------------------------------------------|----------------------------------------------|
|-------------------------------------------|----------------------------------------------|
|-------------------------------------------|----------------------------------------------|
|-10----------------------------------------|----------------------------------------------|
|--8--------8----8-----8----8-----8----8----|--8-----8-----8----8-----8----8-----8----8----|
|
|  W                                          +W
|--8----------------------------------------|-(8)------------------------------------------|
|--8----------------------------------------|-(8)------------------------------------------|
|--8----------------------------------------|-(8)------------------------------------------|
|-------------------------------------------|----------------------------------------------|
|-------------------------------------------|----------------------------------------------|
|-------------------------------------------|----------------------------------------------|


  Ab
   |---3---|  |---3---|  |---3---|  |---3---|
   E  E    E  E  E    E  E  E    E  E  E    E
|-15-15---15-16-15---13-15-15---15-16-15---13-|
|---------------------------------------------|
|---------------------------------------------|
|---------------------------------------------|
|---------------------------------------------|
|---------------------------------------------|
|
|----------------------------------------|
|  E    E     E    E     E    E     E    E
|---------------------------------------------|
|---------------------------------------------|
|---------------------------------------------|
|---------------------------------------------|
|---------------------------------------------|
|--4----4-----4----4-----4----4-----4----4----|
|
|  W
|--8------------------------------------------|
|--9------------------------------------------|
|--8------------------------------------------|
|---------------------------------------------|
|---------------------------------------------|
|---------------------------------------------|


  Ab5                  F
   ~~~~~
                        |--3--|  |--3--|  |--3--|  |--3--|
   H.           E  E    E  E  E  E  E  E  E  E  E  E  E  E
|-18b20--------15-15-|-16-16-16-18-16-15-15-15-15-16-15-13-|
|--------------------|-------------------------------------|
|--------------------|-------------------------------------|
|--------------------|-------------------------------------|
|--------------------|-------------------------------------|
|--------------------|-------------------------------------|
|
|  Q.     Q.    Q       W
|--------------------|-------------------------------------|
|--------------------|-------------------------------------|
|--------------------|-------------------------------------|
|--------------------|-------------------------------------|
|--6------6-----6----|-------------------------------------|
|--4------4-----4----|--1----------------------------------|
|
|  W                    W
|--8-----------------|--8----------------------------------|
|--9-----------------|--9----------------------------------|
|--8-----------------|--8----------------------------------|
|--------------------|-------------------------------------|
|--------------------|-------------------------------------|
|--------------------|-------------------------------------|


   |--3---|  |--3--|  |--3--|  |--3--|
   E   E  E  E  E  E  E  E  E  E  E  E
|-13--13-13-15-13-11-11-11-11-13-11-10-|
|--------------------------------------|
|--------------------------------------|
|--------------------------------------|
|--------------------------------------|
|--------------------------------------|
|
| +W
|--------------------------------------|
|--------------------------------------|
|--------------------------------------|
|--------------------------------------|
|--------------------------------------|
|-(1)----------------------------------|
|
| +W
|-(8)----------------------------------|
|-(9)----------------------------------|
|-(8)----------------------------------|
|--------------------------------------|
|--------------------------------------|
|--------------------------------------|


         G
                                 \4
   a      +H.           +Q       W
|-----------------------------|------------------|
|-11b13==(11)r=========(11)---|------------------|
|-----------------------------|--0---------------|
|-----------------------------|------------------|
|-----------------------------|------------------|
|-----------------------------|------------------|
|
|                PM|     PM-|       PM|   PM|
|          Q   E E E E   E  E    E  E E E E E Q
|-----------------------------|------------------|
|-----------------------------|------------------|
|-----------------------------|------------------|
|--------------5-----5--------|--5------5-----5--|
|-----------------------------|------------------|
|----------3-----3-3-----3--3-|-----3-3---3-3----|
|
|          W                    +W
|----------8------------------|-(8)--------------|
|----------8------------------|-(8)--------------|
|----------7------------------|-(7)--------------|
|-----------------------------|------------------|
|-----------------------------|------------------|
|-----------------------------|------------------|


                               \4
   a      +W                  +H.      Q
|--------------------------|---------------||
|-11b13==(11)r=============|=(11)----------||
|--------------------------|---------------||
|--------------------------|---------------||
|--------------------------|---------------||
|--------------------------|---------------||
|
|                PM|   PM|     ~~~~
|          Q   E E E E E E     H.      Q
|--------------------------|---------------||
|--------------------------|---------------||
|--------------------------|---------------||
|--------------5-----5-----|---5-----------||
|--------------------------|---------------||
|----------3-----3-3---3-3-|---------------||
|
|         +W                  +W
|---------(8)--------------|--(8)----------||
|---------(8)--------------|--(8)----------||
|---------(7)--------------|--(7)----------||
|--------------------------|---------------||
|--------------------------|---------------||
|--------------------------|---------------||


   Interlude
    D5
    Gtr I
     Q   E  E  E  E  E  E    E   E  E  E  E  E  E  E
||------------------------|--------------------------|
||o-----13p10----11p10----|-15p=10----13p10----11p10-|
||--10--------10-------10-|--------10-------10-------|
||------------------------|--------------------------|
||o-----------------------|--------------------------|
||------------------------|--------------------------|
|
|   Gtr II
|    Q   E  E  E  E  E  E    E   E  E  E  E  E  E  E
||------------------------|--------------------------|
||o-----10p=6-----8p=6----|-11p==6----10p=6-----8p=6-|
||---7---------7--------7-|---------7--------7-------|
||------------------------|--------------------------|
||o-----------------------|--------------------------|
||------------------------|--------------------------|
|
|   Gtr III
|    W                      +W
||------------------------|--------------------------|
||o-----------------------|--------------------------|
||---7--------------------|-(7)----------------------|
||---7--------------------|-(7)----------------------|
||o--5--------------------|-(5)----------------------|
||------------------------|--------------------------|


                          F5
   Q   E  E  E  E  E  E    E  E  E  E  E  E  E  E   4x
|-----------------------|-------------10------------||
|-----13p10----13p10----|-13p10----13----13-11-----o||
|-10--------10-------10-|-------10-------------10---||
|-----------------------|---------------------------||
|-----------------------|--------------------------o||
|-----------------------|---------------------------||
|
|  Q   E  E  E  E  E  E    E  E  E  E  E  E  E  E   4x
|-----------------------|--------------6------------||
|-----10p=6----10p=6----|-10p=6----10----10--8--6--o||
|--7---------7--------7-|--------7------------------||
|-----------------------|---------------------------||
|-----------------------|--------------------------o||
|-----------------------|---------------------------||
|
|  W                       W                        4x
|-----------------------|---------------------------||
|-----------------------|--6-----------------------o||
|--7--------------------|--5------------------------||
|--7--------------------|--3------------------------||
|--5--------------------|--------------------------o||
|-----------------------|---------------------------||


  D5
   Q   E  E  E  E  E  E    E   E  E  E  E  E  E  E
|-----------------------|--------------------------|
|-----13p10----11p10----|-15p=10----13p10----11p10-|
|-10--------10-------10-|--------10-------10-------|
|-----------------------|--------------------------|
|-----------------------|--------------------------|
|-----------------------|--------------------------|
|
|  Q   E  E  E  E  E  E    E   E  E  E  E  E  E  E
|-----17p13----15p13----|-18p=13----17p13----15p13-|
|-15--------15-------15-|--------15-------15-------|
|-----------------------|--------------------------|
|-----------------------|--------------------------|
|-----------------------|--------------------------|
|-----------------------|--------------------------|
|
|  W                      +W
|-----------------------|--------------------------|
|-----------------------|--------------------------|
|--7--------------------|-(7)----------------------|
|--7--------------------|-(7)----------------------|
|--5--------------------|-(5)----------------------|
|-----------------------|--------------------------|


  F5
   Q   E  E  E  E  E  E    E   E  E  E  E  E  E  E
|-----------------------|--------------------------|
|-----13p10----11p10----|-15p=10----13p10----11p10-|
|-10--------10-------10-|--------10-------10-------|
|-----------------------|--------------------------|
|-----------------------|--------------------------|
|-----------------------|--------------------------|
|
|  Q   E  E  E  E  E  E    E   E  E  E  E  E  E  E
|-----17p13----15p13----|-18p=13----17p13----15p13-|
|-13--------13-------13-|--------13-------13-------|
|-----------------------|--------------------------|
|-----------------------|--------------------------|
|-----------------------|--------------------------|
|-----------------------|--------------------------|
|
|  W                      +W
|-----------------------|--------------------------|
|--6--------------------|-(6)----------------------|
|--5--------------------|-(5)----------------------|
|--3--------------------|-(3)----------------------|
|-----------------------|--------------------------|
|-----------------------|--------------------------|


  G5
   Q   E  E  E  E  E  E    E   E  E  E  E  E  E  E
|-----13p10----13p10----|-13p=10----13p10----13p10-|
|-12--------12-------12-|--------12-------12-------|
|-----------------------|--------------------------|
|-----------------------|--------------------------|
|-----------------------|--------------------------|
|-----------------------|--------------------------|
|
|  Q   E  E  E  E  E  E    E   E  E  E  E  E  E  E
|-----22p19----22p19----|-22p=19----22p19----22p19-|
|-20--------20-------20-|--------20-------20-------|
|-----------------------|--------------------------|
|-----------------------|--------------------------|
|-----------------------|--------------------------|
|-----------------------|--------------------------|
|
|  W                      +W
|-----------------------|--------------------------|
|--8--------------------|-(8)----------------------|
|--7--------------------|-(7)----------------------|
|--5--------------------|-(5)----------------------|
|-----------------------|--------------------------|
|-----------------------|--------------------------|


                        D.S.S. al Dbl. Coda
   Q    E  E  E  E  E  E    H.           Q
|------15p10----15p10----|-17b20\-----------||
|-12---------12-------12-|------------------||
|------------------------|------------------||
|------------------------|------------------||
|------------------------|------------------||
|------------------------|------------------||
|
|  Q    E  E  E  E  E  E    H.           Q
|------22p19----22p19----|-22b25\-----------||
|-20---------20-------20-|------------------||
|------------------------|------------------||
|------------------------|------------------||
|------------------------|------------------||
|------------------------|------------------||
|
| +W                        Q      Q  H
|------------------------|------------------||
|-(8)--------------------|------------------||
|-(7)--------------------|------------------||
|-(5)--------------------|------------------||
|------------------------|--7h=====8--------||
|------------------------|------------------||


 Pre-Out-Chorus
  &&
  E5
   Q   Q    Q    Q      Q    Q    Q    Q
|-12\-----(12)\-----|-(12)\-----(12)\-----|
|-------------------|---------------------|
|-------------------|---------------------|
|-------------------|---------------------|
|-------------------|---------------------|
|-------------------|---------------------|
|
|  W                   +W
|-------------------|---------------------|
|-------------------|---------------------|
|-------------------|---------------------|
|-------------------|---------------------|
|-------------------|---------------------|
|--0----------------|--(0)----------------|
|
|  W                   +W
|-------------------|---------------------|
|-------------------|---------------------|
|--9----------------|--(9)----------------|
|--9----------------|--(9)----------------|
|--7----------------|--(7)----------------|
|-------------------|---------------------|


                                                D5
   E   E  Q    E    E    Q       E    E    Q      E    E    Q
|-10--10-12--(10)-(10)-(12)--|-(10)-(10)-(12)---(10)-(10)-(12)---|
|----------------------------|-----------------------------------|
|----------------------------|-----------------------------------|
|----------------------------|-----------------------------------|
|----------------------------|-----------------------------------|
|----------------------------|-----------------------------------|
|
| +W                            +W
|----------------------------|-----------------------------------|
|----------------------------|-----------------------------------|
|----------------------------|-----------------------------------|
|----------------------------|-----------------------------------|
|----------------------------|-----------------------------------|
|-(0)------------------------|--(0)------------------------------|
|
| +W                            +Q.           E   H
|----------------------------|-----------------------------------|
|----------------------------|-----------------------------------|
|-(9)------------------------|--(9)-----------9---7--------------|
|-(9)------------------------|--(9)-----------9---7--------------|
|-(7)------------------------|--(7)-----------7---5--------------|
|----------------------------|-----------------------------------|


       E5
   H       Q    E        +E      +W
|-----------------------------|-----------------|
|----------x--[10]b12==([10])-|-(10)r===========|
|-----------------------------|-----------------|
|-----------------------------|-----------------|
|-----------------------------|-----------------|
|-----------------------------|-----------------|
|
| +W                             +W
|-----------------------------|-----------------|
|-----------------------------|-----------------|
|-----------------------------|-----------------|
|-----------------------------|-----------------|
|-----------------------------|-----------------|
|-(0)-------------------------|--(0)------------|
|
|  Q   H.                        +H     E E E E
|-----------------------------|-----------------|
|-----------------------------|-----------------|
|------9----------------------|--(9)----9-9-9-9-|
|------9----------------------|--(9)----9-9-9-9-|
|------7----------------------|--(7)----7-7-7-7-|
|--0--------------------------|-----------------|


                           D5
   +W              +H      Q   Q
|---------------|-------------------|
|-(10)r=========|=(10)--------10\---|
|---------------|-------------------|
|---------------|-------------------|
|---------------|-------------------|
|---------------|-------------------|
|
|  +W              +W
|---------------|-------------------|
|---------------|-------------------|
|---------------|-------------------|
|---------------|-------------------|
|---------------|-------------------|
|--(0)----------|--(0)--------------|
|
|   Q   H.         +Q.   E H
|---------------|-------------------|
|---------------|-------------------|
|-------9-------|--(9)---9-7--------|
|-------9-------|--(9)---9-7--------|
|-------7-------|--(7)---7-5--------|
|---0-----------|-------------------|


  N.C.                                                                  E5D5
Добавлено: 07.07.2012
Другие материалы по этой песне:

Страница создана 12.03.2012
http://primanota.ru/helloween/save-us-chords.htm
Привет, Гость.
Предлагаем пройти революционный курс по гитаре.
Подарок от PrimaNota.Ru, забирай!