PrimaNota.ru - самый крупный в мире бесплатный архив песенных текстов, аккордов, табулатур и нот


Heart - Stairway To Heaven Acoustic Tribute - аккорды и текст, видео

Регистрация Запомнить меня
Войти через:  Facebook Google Twitter Vk Yandex Mail.ru

Heart - Stairway To Heaven Acoustic Tribute - аккорды и текст, видео

Печатать
Просмотров: 121
Уроки эстрадного вокала в Санкт-Петербурге
Stairway To Heaven Acoustic Tribute
Heart
STAIRWAY TO HEAVEN Acoustic Tribute to Led Zeppelin by Heart: Tabbed by Buenofine Calse
------------------

INTRO:

E-------5-7-----7-|-8-----8-2-----2-|-0---------0-----|-----------------|
B-----5-----5-----|---5-------3-----|---1---1-----1---|-0-1-1-----------|
G---5---------5---|-----5-------2---|-----2---------2-|-0-2-2-----------|
D-7-------6-------|-5-------4-------|-3---------------|-----------------|
A-----------------|-----------------|-----------------|-2-0-0---0--/8-7-|
E-----------------|-----------------|-----------------|-----------------|
 
E---------7-----7-|-8-----8-2-----2-|-0---------0-----|-----------------|
B-------5---5-----|---5-------3-----|---1---1-----1---|-0-1-1-----------|
G-----5-------5---|-----5-------2---|-----2---------2-|-0-2-2-----------|
D---7-----6-------|-5-------4-------|-3---------------|-----------------|
A-0---------------|-----------------|-----------------|-2-0-0-------0-2-|
E-----------------|-----------------|-----------------|-----------------|
 
E-------0-2-----2-|-0-----0----------|---------3-----3-|-3p-2-2----------|
B-----------3-----|---1-----0h1------|-1-----1---0-----|-3--3-3----------|
G-----0-------2---|-----2-------2----|-----0-------0---|-2--2-2----------|
D---2-----0-------|-3----------------|---2-------------|-0--0-0----------|
A-3---------------|---------0----0-2-|-3---------------|-----------------|
E-----------------|------------------|---------3-------|-----------------|
                                                               
E---------2-----2-|-0-----0----------|---------------2-|--0-0-0----------|
B-------1---3-----|---1-----0-1------|-------1-----3---|-h1-1-1----------|
G-----0-------2---|-----2-------2----|-----0-----2-----|-h2-2-2----------|
D---2-----0-------|-3----------------|---2-----0-------|--3-3-3----------|
A-3---------------|---------0----0-2-|-3---------------|---------0--/8-7-|
E-----------------|------------------|-----------------|-----------------|
                                                               

          Am         C/G#          C/G         D/F#
There's a lady who's sure all that glitters is gold 
          F7M                     G  Am
And she's buying the stairway to heaven. 
         Am             C/G#          C/G            D/F#      
When she gets there she knows, if the stores are all closed 
       F7M                       G    Am
With a word she can get what she came for. 
C D   F7M    Am         C          G           Dsus4 D
Ooh,  ooh,    and she's buying the stairway to heaven. 


          C           D            F7M         Am
There's a sign on the wall but she wants to be sure 
           C              D              F7M  
'Cause you know sometimes words have two meanings. 
     Am          C/G#             C/G          D/F#
In a tree by the brook, there's a songbird who sings, 
          F7M                        G  Am
Sometimes all of our thoughts are misgiven.

E|-----------------|---------7-----7-|-8-----8-2-----2-|-0---------0-----|-------------3---|
B|-----------------|-------5---5-----|---5-------3-----|---1---1-----1---|-0-1-1-------0---|
G|-----------------|-----5-------5---|-----5-------2---|-----2---------2-|-0-2-2-------0---|
D|-----------------|---7-----6-------|-5-------4-------|-3---------------|-------------0---|
A|---------0--/8-7-|-0---------------|-----------------|-----------------|-2-0-0-------2---|
E|-----------------|-----------------|-----------------|-----------------|-------------3---| 

Am7(with E string on 3rd fret)

Dsus4 D               Am7        Em/D D C/D D
Ooh,         it makes me wonder, 
Am7 Dsus4 D           Am7        Em/D D C/D D
Ooh,         it makes me wonder. 


          C         G/B        Am
There's a feeling I get when I look to the west, 
       C         G/B        F7M   Am
And my spirit is crying for leaving. 
      C               G/B           Am  
In my thoughts I have seen rings of smoke through the trees, 
        C         G/B             F7M   Am     C G/B  Am7
And the voices of those who stand looking. 

Dsus4 D              Am7              Em/D D C/D D
Ooh,        it makes me wonder, 
Am7 Dsus4 D          Am7              Em/D D C/D D 
Ooh,        it really makes me wonder. 


         C              G/B         Am
And it's whispered that soon if we all call the tune 
          C         G/B        F7M   Am
Then the piper will lead us to reason. 
      C            G/B      Am
And a new day will dawn for those who stand long 
        C            G/B       F7M   Am      C G/B Am7  Dsus4 D  Em/D D C/D D
And the forests will echo with laughter. 


(strum)
C            G/B                 Am
If there's a bustle in your hedgerow, don't be alarmed now, 
C           G/B                  F7M   Am
It's just a spring clean for the May  queen. 
C               G/B              Am
Yes, there are two paths you can go by, but in the long run 
C                 G/B                F7M   Am          C G/B  Am7 Dsus4 D
and there's still time to change the road you're on. 

             Am7         Em/D D C/D D Am7 Dsus4 D
And it makes me wonder,
      Am7                Em/D D C/D D
oh. 


C             G/B           Am
Your head is humming and it won't go, in case you don't know, 
C            G/B           F7M   Am
The piper's calling you to join him, 
C          G/B              Am
Dear lady, can you hear the wind blow, and did you know 
C             G/B         F7M       Am
Your stairway lies on the whispering wind... 

 Hmmhmhmmmmmm Hmmmmm   Hmm
      C      G/B       D
|----------------------2-|
|-----------1------3---3-|
|---------0------0-----2-|
|-------2------0-------0-|
|-0-2-3------2-----------|
|------------------------|


|--0-2-3---0-2-3---0-2-3---3--2---0--2--0--2--0--2--0--2--0--2--0--2--3-2--|
|--3-3-3---3-3-3---3-3-3---3--3---1--1--1--1--1--1--1--1--1--1--1--1--3-3--|
|--0-2-2---0-2-2---0-2-2---2--2---0--0--0--0--0--0--0--0--0--0--0--0--2-2--|
|--0-0-0---0-0-0---0-0-0---0--0---2--2--2--2--2--2--2--2--2--2--2--2-------|
|---------------------------------3-----3-----3-----3-----3-----3----------|
|--------------------------------------------------------------------------|

|--0-2-3---0-2-3---0-2-3---3--2---0--2--0--2--0--2--0--3-2-----------------|
|--3-3-3---3-3-3---3-3-3---3--3---1--1--1--1--1--1--3--3-3-----------------|
|--0-2-2---0-2-2---0-2-2---2--2---0--0--0--0--0--0--0--2-2-----------------|
|--0-0-0---0-0-0---0-0-0---0--0---2--2--2--2--2--2--0----------------------|
|---------------------------------3-----3-----3-----2-----------2-0--------|
|--------------------------------------------------------------------3/----|
 
SOLO: (with barred Am G F G sequence 10x)

|----5---------------------|----8-8-8b--8p5------8-10p8--------------|
|------8-5-----------------|-8b-------------8/10--------10-8----8h10-|
|-7b-------7-5---7-5-------|---------------------------------10------|
|--------------7-----7-5---|-----------------------------------------|
|------------------------8-|-----------------------------------------|
|--------------------------|-----------------------------------------|


|------5-----------------------------------|
|----5---8p5-------------------------------|
|-7b---------7-5---7-5-----------5---5-5p0-|
|----------------7-----7-5---5-7---7-------|
|--------------------------7---------------|
|------------------------------------------|


|-5--------------------------|
|---8-5----------------------|
|-------7-5---7-5------------|
|-----------7-----7-5-7-5----|
|-------------------------8v-|
|----------------------------|


|--------------------|-------------------|
|--------------------|----------------13-|
|--------------------|-------12-12h14----|
|-----10h12p10----10-|-12/14-------------|
|-/12----------12----|-------------------|
|--------------------|-------------------|


|--------------------|-15b-15p13-|
|-15b-15p13-15p13----|-----------|
|-----------------14-|-----------|
|--------------------|-----------|
|--------------------|-----------|
|--------------------|-----------|

Repeat this 12 times
|----------------|
|-15br-p13----13-|
|----------14----|
|----------------|
|----------------|
|----------------|


|-15b-12-15-12--------------------------------15-------------|
|--------------15-13----13-15-13----13-15-15b----15br-p13----|
|--------------------14----------14-----------------------14-|
|------------------------------------------------------------|
|------------------------------------------------------------|
|------------------------------------------------------------|


|-----15-17p15-------------------------|
|-15b----------15br-13-15-13----13-15b-|
|----------------------------14--------|
|--------------------------------------|
|--------------------------------------|
|--------------------------------------|


|-------------------------|
|-------------------------|
|-14b-14b-14-12-14-12-14v-|
|-------------------------|
|-------------------------|
|-------------------------|


|-----------------------------|
|-----5-------5---------------|
|-10b---7-5-7---7-5-7-8-7-5---|
|---------------------------7-|
|-----------------------------|
|-----------------------------|

      |- 6 times --|
|-----|--20p17-----|-20b-|
|-/17-|--------17--|-----|
|-----|------------|-----|
|-----|------------|-----|
|-----|------------|-----|
|-----|------------|-----|
                                                  
Final lyrics: use a Am G F G barre chord sequence 

Am          G                F    G
  And as we wind on down the road 
Am            G               F    G
  Our shadows taller than our soul 
Am               G            F    G
  There walks the lady we all know 
Am                 G                  F    G
  Who shines white light and wants to show
Am           G                  F    G 
  how everything still turns to gold 
Am           G           F    G
  And if you listen very hard 
Am              G              F    G
  the tune will come to you at last 
Am             G              F    G
  When all are one and one is all 
Am        G               F    G
  To be a rock and not to roll...

Am    G     F                    Am (3x) 
          |-1--------------------5-----|
          |-1--------------------5-----|
          |-2--------------------5-----|
          |-3--------------------7-----|
          |-3---------3-5-/7-5---7-----|
          |-1--1-3-/5----------8-5-----|

CODA:
    F7M               G          Am  
  And she's buying a stairway to heaven.


/buend.
Добавлено: 02.08.2015
Другие материалы по этой песне:
  • Аккорды и текст

Страница создана 02.08.2015
http://primanota.ru/heart/stairway-to-heaven-acoustic-tribute-chords.htm
Привет, Гость.
Предлагаем пройти революционный курс по гитаре.
Подарок от PrimaNota.Ru, забирай!