PrimaNota.ru - самый крупный в мире бесплатный архив песенных текстов, аккордов, табулатур и нот


Heart - White Lightning & Wine - текст песни, бас-таба, видео

Регистрация Запомнить меня
Войти через:  Facebook Google Twitter Vk Yandex Mail.ru

Heart - White Lightning & Wine - текст песни, бас-таба, видео

Печатать
Просмотров: 16
Уроки эстрадного вокала в Санкт-Петербурге
Авторы: Ann Wilson, Nancy Wilson

[Intro: Comes in at :08]

G|-18p16~----------|------16--16p14--|-14h16~----------|---11-11-11-11-14\-|
D|-----------------|-----------------|-----------------|-------------------|
A|-----------------|-----------------|-----------------|-------------------|
E|-----------------|-----------------|-----------------|-------------------|

G|-----------------|-----------------|-----------------|-----------------|
D|-----------------|-----------------|-----------------|-----------------|
A|-2---2-------0---|-2-----------0---|-2---2-------0---|-2---2-------0---|
E|-----------2---2-|-----------2---2-|---------------2-|-----------2---2-|


[Verse]

G|-----------------|-----------------|-----------------|-----------------|  x2
D|-----------------|-----------------|-----------------|-----------------|
A|-2-----------0---|-2r----------0---|-2-----------0---|-2r----------0---|
E|-----------2---2-|-----------2---2-|-----------2---2-|-----------2---2-|

G|-----------------|-----------------|-----------------|-----------------|
D|-----------------|-----------------|---------0-2-4-5-|-(5)-------------|
A|-2-----------0---|-2r----------0---|-0-0-0-----------|-----------------|
E|-----------2---2-|-----------2---2-|-----------------|-----------------|

G|-----------------|-----------------|-----------------|-----------------|
D|-(5)-------------|-0-0-0---0-0---0-|-2-2-2---2-2-----|-0-0-0---0-0---0-|
A|-----------------|-----------------|-----------------|-----------------|
E|-----------------|-----------------|-----------------|-----------------|

G|-----------------|-----------------|
D|-2-2-2-2-2-2-2-2-|-2-2-2-2-2-2-2-2-|
A|-----------------|-----------------|
E|-----------------|-----------------|


[Chorus]

G|-----------------|-----------------|-----------------|-----7---5-------|
D|-4-4-------------|-------------0---|-----------------|-------7---0-----|
A|-------2---------|-2---2---0-2-----|---------0---0---|-5---------------|
E|---------------2-|-------2-------0-|-2---2-----------|-----------------|

G|-----11--9-------|-----11--9-------|-----------------|-----------------|
D|-4-----11--4-----|-4-----11--4-----|-2---------------|-(2)-------------|
A|-----------------|-----------------|-----------------|-----------------|
E|-----------------|-----------------|-----------------|-----------------|

G|-----------------|-------------4---|
D|-2---------------|---------2-4-----|
A|-----------------|---------------0-|
E|-----------------|-----------------|


[Pre-Verse]

G|-----------------|-----------------|-----------------|-----------------|
D|-----------------|-----------------|-----------------|-----------------|
A|-2---2-------0---|-2---2-------0---|-2---2-------0---|-2---2-------0---|
E|-----------2---2-|-----------2---2-|---0-------2---2-|-----------2---2-|


[Verse]

G|-----------------|-----------------|-----------------|-----------------|  x2
D|-----------------|-----------------|-----------------|-----------------|
A|-2-----------0---|-2r----------0---|-2-----------0---|-2r----------0---|
E|-----------2---2-|-----------2---2-|-----------2---2-|-----------2---2-|

G|-----------------|-----------------|-----------------|-----------------|
D|-----------------|-----------------|---------0-2-4-5-|-(5)-------------|
A|-2-----------0---|-2r----------0---|-0-0-0-----------|-----------------|
E|-----------2---2-|-----------2---2-|-----------------|-----------------|

G|-----------------|-----7---5-------|-----9---7-------|-----7---5-------|
D|-(5)-------------|-0-0---7---0-----|-2-2---9---2-----|-0-0---7---0-----|
A|-----------------|-----------------|-----------------|-----------------|
E|-----------------|-----------------|-----------------|-----------------|

G|-----------------|-----------------|
D|-2-2-2-2-2-2-2-2-|-2-2-2-2-2-2-2-2-|
A|-----------------|-----------------|
E|-----------------|-----------------|


[Chorus]

G|-----------------|-----------------|-----------------|-----7---5-------|
D|-4-4-------------|-------------0---|-----------------|-------7---0-----|
A|-------2---------|-2---2---0-2-----|---------0---0---|-5---------------|
E|-----------------|-------2-------0-|-2---2-----------|-----------------|

G|-----11--9-------|-----11--9-------|-----------------|-----------------|
D|-4-----11--4-----|-4-----11--4-----|-2-2-2-2-2-2-2-2-|-2-2-2-2-2-2-2-2-|
A|-----------------|-----------------|-----------------|-----------------|
E|-----------------|-----------------|-----------------|-----------------|

G|-----------------|-----------------|-----------------|-----7---5-------|
D|-4-4-------------|-------------0---|-----------------|-------7---0-----|
A|-------2---------|-2---2---0-2-----|---------0---0---|-5---------------|
E|-----------------|-------2-------0-|-2---2-----------|-----------------|

G|-----11--9-------|-----11--9-------|-----------------|-----------------|
D|-4-----11--4-----|-4-----11--4---0-|-2---------------|-(2)-------------|
A|-----------------|-----------------|-----------------|-----------------|
E|-----------------|-----------------|-----------------|-----------------|

G|-----------------|-----------------|-----------------|-----------------|
D|-2---------------|-(2)-------------|-----------------|-----------------|
A|-----------------|-----------------|-----------------|-----------------|
E|-----------------|-----------------|-2-0-------------|-(0)-------------|


[Outro/Solo]

G|-----------------|-----------------|-----------------|-----------------|
D|---0-------------|-----------------|-----------------|-----------------|
A|-2---2-0-2---2---|-----0---2---2---|-----0---2---2---|-----0---2---2---|
E|-----------------|---2---2---------|---2---2---------|---2---2---------|

G|-----------------|-----------------|-----------------|-----------------|
D|---------2-------|-(2)-------2-2-2-|-2---------2-2-0-|---------2-2-2-2-|
A|-----0-----------|-----------------|-----------------|-2---------------|
E|---2---2---------|-----------------|-----------------|---0-------------|

G|-----------------|-----------------|-----------------|-----------------|
D|-2---------2-2-0-|---------2-2-2-2-|-2---------2-2-0-|---------2-2-2-2-|
A|-----------------|-2---------------|-----------------|-2---------------|
E|-----------------|---0-------------|-----------------|---0-------------|

G|-----------------|-----------------|-----------------|-----------------|
D|-2-2-0---0-----0-|-----2---2-2-2-2-|-2---------2-2-0-|---------2-2-2-2-|
A|-------2---2-0---|-----------------|-----------------|-2---------------|
E|-----------------|-0---------------|-----------------|---0-------------|

G|-----------------|-----------------|-----------------|-----------------|
D|-2-2-0---0-----0-|-----2---2-2-2-2-|-2---2---2-2-2-2-|-2-------2-2-2-2-|
A|-------2---2-0---|-----------------|-----------------|-----------------|
E|-----------------|-0---------------|-----------------|-----------------|

G|-----------------|-----------------|-----------------|-----------------|
D|-2---------2-2-0-|-------2---2-2-2-|-2-2-0---0-----0-|-----2---2-2-2-2-|
A|-----------------|-2---------------|-------2---2-0---|-----------------|
E|-----------------|---0-------------|-----------------|-0---------------|

G|-----------------|-----------------|-----------------|-----------------|
D|-2---2-----2-2-0-|-------2---2-2-2-|-2-2-0---0-----0-|-----2---2-2-2-2-|
A|-----------------|-2---------------|-------2---2-0---|-----------------|
E|-----------------|---0-------------|-----------------|-0---------------|

G|-----------------|-----------------|-----------------|-----------------|  Fade out
D|-2---2---2-2-2-2-|-2---2---2-2-2-2-|-2---2---2-2-2-2-|-2---2---2-2-2-2-|
A|-----------------|-----------------|-----------------|-----------------|
E|-----------------|-----------------|-----------------|-----------------|

************************************

| x   Dead note
| g   Grace note
| (n) Ghost note
| h   Hammer-on
| p   Pull-off
| r   Release
| >   Accented note
| t   Tapping
| b   Bend
| br  Bend release
| pb  Pre-bend
| pbr Pre-bend release
| /   Slide up
| \   Slide down
| ~   Vibrato
| s   Slap
| P   Pop
| PM  Palm mute
| TR  Trill
| N   Tremolo

************************************
Добавлено: 11.08.2017
Вам также может быть интересно:
Другие материалы по этой песне:
  • Аккорды и текст

Страница создана 15.07.2012
http://primanota.ru/heart/white-lightning-and-wine-chords.htm
Привет, Гость.
Предлагаем пройти революционный курс по гитаре.
Подарок от PrimaNota.Ru, забирай!