PrimaNota.ru - самый крупный в мире бесплатный архив песенных текстов, аккордов, табулатур и нот


Hate - Threnody - таба, видео

Регистрация Запомнить меня
Войти через:  Facebook Google Twitter Vk Yandex Mail.ru

Hate - Threnody - таба, видео

Печатать
Просмотров: 54
-------------------------------------------------------------------------------
                             Threnody - Hate
-------------------------------------------------------------------------------
Tabbed by: 
E-mail: 

Tuning: D

Intro:
e|---------------------------------------------------------------------------|  x4
B|---------------------------------------------------------------------------|
G|---------------------------------------------------------------------------|
D|-11-10-11-10-9------5-----5-----5-----5------------------------------------|
A|--9--8--9--8-7--0-0-3-0-0-3-0-0-3-0-0-3-0-0--------------------------------|
E|--9--8--9--8-7--0-0-3-0-0-3-0-0-3-0-0-3-0-0--------------------------------|

Riff 1:
e|---------------------------------------------------------------------------|
B|-1-1-0-0-1--1-1-0-0-1--1-1-0-0--4-4-3-3-4--4-4-3-3-4--4-4-3-3--7-7-6-6-7---|
G|-2-2-2-2-2--2-2-2-2-2--2-2-2-2--5-5-5-5-5--5-5-5-5-5--5-5-5-5--8-8-8-8-8---|
D|-2-2-2-2-2--2-2-2-2-2--2-2-2-2--5-5-5-5-5--5-5-5-5-5--5-5-5-5--8-8-8-8-8---|
A|-0-0-0-0-0--0-0-0-0-0--0-0-0-0--3-3-3-3-3--3-3-3-3-3--3-3-3-3--6-6-6-6-6---|
E|---------------------------------------------------------------------------| Cling to truths unknown...

e|---------------------------------------------------------------------------|
B|-7-7-6-6-7--7-7-6-6--10-10--9--9-10--10-10--9--9-10--8-8-7-7---------------|
G|-8-8-8-8-8--8-8-8-8--11-11-11-11-11--11-11-11-11-11--9-9-9-9---------------|
D|-8-8-8-8-8--8-8-8-8--11-11-11-11-11--11-11-11-11-11--9-9-9-9---------------|
A|-6-6-6-6-6--6-6-6-6---9--9--9--9--9---9--9--9--9--9--7-7-7-7---------------|
E|---------------------------------------------------------------------------|

e|---------------------------------------------------------------------------|
B|-1-1-0-0-1--1-1-0-0-1--1-1-0-0--4-4-3-3-4--4-4-3-3-4--4-4-3-3--7-7-6-6-7---|
G|-2-2-2-2-2--2-2-2-2-2--2-2-2-2--5-5-5-5-5--5-5-5-5-5--5-5-5-5--8-8-8-8-8---|
D|-2-2-2-2-2--2-2-2-2-2--2-2-2-2--5-5-5-5-5--5-5-5-5-5--5-5-5-5--8-8-8-8-8---|
A|-0-0-0-0-0--0-0-0-0-0--0-0-0-0--3-3-3-3-3--3-3-3-3-3--3-3-3-3--6-6-6-6-6---|
E|---------------------------------------------------------------------------|

e|--------------------------------------------------------------------------------|
B|-7-7-6-6-7--7-7-6-6--10-10--9--9-10--8-8-7-7-8--6-6-5-5-1 1 1 1 1 1 2 2 2 2 2 2-|
G|-8-8-8-8-8--8-8-8-8--11-11-11-11-11--9-9-9-9-9--7-7-7-7-2 2 2 2 2 2 3 3 3 3 3 3-|
D|-8-8-8-8-8--8-8-8-8--11-11-11-11-11--9-9-9-9-9--7-7-7-7-2 2 2 2 2 2 3 3 3 3 3 3-|
A|-6-6-6-6-6--6-6-6-6---9--9--9--9--9--7-7-7-7-7--5-5-5-5-0 0 0 0 0 0 1 1 1 1 1 1-|
E|--------------------------------------------------------------------------------|

Riff 2:
e|-----------------------------------------------------------------------------------------|
B|-----------------------------------------------------------------------------------------|
G|-----------------------------------------------------------------------------------------|
D|-------------7-7-7-6-6--------------7-7-7-6-6----------------------7-7-7-6-6-------------|
A|-3-3---3-3---7-7-7-6-6--3-3---3-3---7-7-7-6-6--3-3-3-----3-3-3-----7-7-7-6-6-------------|
E|-3-3---3-3---5-5-5-4-4--3-3---3-3---5-5-5-4-4--3-3-3-(5)-3-3-3-(5)-5-5-5-4-4-000-000-000-|

e|---------------------------------------------------------------------------------------------------------|
B|---------------------------------------------------------------------------------------------------------|
G|---------------------------------------------------------------------------------------------------------|
D|---------------------7-7-7-6-6----------------------7-7-7-6-6----------------------7-7-7-6-6-------------|
A|-3-3-3-----3-3-3-----7-7-7-6-6--3-3-3-----3-3-3-----7-7-7-6-6--3-3-3-(5)-3-3-3-(5)-7-7-7-6-6-------------|
E|-3-3-3-(5)-3-3-3-(5)-5-5-5-4-4--3-3-3-(5)-3-3-3-(5)-5-5-5-4-4--3-3-3-----3-3-3-----5-5-5-4-4-000-000-000-|

Riff 3:
e|---------------------------------------------------------------------------|  x3
B|-1-1-0-0-1--1-1-0-0-1--1-1-0-0--4-4-3-3-4--4-4-3-3-4--2-2-1-1--------------|
G|-2-2-2-2-2--2-2-2-2-2--2-2-2-2--5-5-5-5-5--5-5-5-5-5--3-3-3-3--------------|
D|-2-2-2-2-2--2-2-2-2-2--2-2-2-2--5-5-5-5-5--5-5-5-5-5--3-3-3-3--------------|
A|-0-0-0-0-0--0-0-0-0-0--0-0-0-0--3-3-3-3-3--3-3-3-3-3--1-1-1-1--------------|
E|---------------------------------------------------------------------------|

Riff 4:
e|--------------------------------------------------------------------------|  x2
B|--------------------------------------------------------------------------|
G|--------------------------------------------------------------------------|
D|--------------------------------------------------------------------------|
A|-3-4-3-4-5~-3-4-3-4-3-4-5~4(5)-3-4-3-4-5~-3-4-3-4-3-4-5~------------------|
E|-1-2-1-2-3~-1-2-1-2-1-2-3~-----1-2-1-2-3~-1-2-1-2-1-2-3~------------------| Come and watch the blackest sea.


e|--------------------------------------------------------------------------|
B|--------------------------------------------------------------------------|
G|--------------------------------------------------------------------------|
D|--------------------------------------------------------------------0-0-0-|
A|--------------------------------------------------------------------0-0-0-|  +Riff 1
E|--------------------------------------------------------------------0-0-0-|  We remain faithful to the core.

Riff 5:
e|---------------------------------------------------------------|
B|-1 1 1 1 1 1 4 4 4 4 4 4 1 1 1 1 1 1---------------------------|
G|-2 2 2 2 2 2 5 5 5 5 5 5 2 2 2 2 2 2-------------6-5-----------|
D|-2 2 2 2 2 2 5 5 5 5 5 5 2 2 2 2 2 2---------7-5---------------|
A|-0 0 0 0 0 0 3 3 3 3 3 3 0 0 0 0 0 0-----7-5-------------------|
E|-------------------------------------8-6-----------------------| Aeons of suffering to find there's no life.

e|---------------------------------------------------------------------------|
B|-1 1 1 1 1 1 4 4 4 4 4 4 2 2 2 2 2 2---------------------------------------|
G|-2 2 2 2 2 2 5 5 5 5 5 5 3 3 3 3 3 3---------------------------------------|
D|-2 2 2 2 2 2 5 5 5 5 5 5 3 3 3 3 3 3---------------------------------------|
A|-0 0 0 0 0 0 3 3 3 3 3 3 1 1 1 1 1 1---------------------------------------|
E|-------------------------------------7-5-9-7-11-9-12-11--------------------|

e|---------------------------------------------------------------------------|
B|-1 1 1 1 1 1 4 4 4 4 4 4 8 8 8 6 6 6---------------------------------------|
G|-2 2 2 2 2 2 5 5 5 5 5 5 9 9 9 7 7 7-------------6-5-----------------------|
D|-2 2 2 2 2 2 5 5 5 5 5 5 9 9 9 7 7 7---------7-5---------------------------|
A|-0 0 0 0 0 0 3 3 3 3 3 3 7 7 7 5 5 5-----7-5-------------------------------|
E|-------------------------------------8-6-----------------------------------|

e|---------------------------------------------------------------------------|
B|-1-1-0-0-1--1-1-0-0-1--1-1-0-0--2-2-1-1-2--2-2-1-1-2--2-2-1-1--------------|
G|-2-2-2-2-2--2-2-2-2-2--2-2-2-2--3-3-3-3-3--3-3-3-3-3--3-3-3-3--------------|
D|-2-2-2-2-2--2-2-2-2-2--2-2-2-2--3-3-3-3-3--3-3-3-3-3--3-3-3-3--------------|
A|-0-0-0-0-0--0-0-0-0-0--0-0-0-0--1-1-1-1-1--1-1-1-1-1--1-1-1-1--------------|
E|---------------------------------------------------------------------------|

Riff 6:
e|---------------------------------------------------------------------------|  x2
B|-4-----4---4-------2-----4---3------------------4-----4-2---3-4/8-8\4------|
G|-5-------5-5-----5---5---5-----5---5-5------------5---5---5---5/9-9\5------|
D|-5---5-----5---5-------5-5-------------1~~~1-1~~----5-5-------5/9-9\5------|
A|-3-3-------3-3-----------3-3-----3-----3~~~3-3~~------3-------3/7-7\3------|
E|---------------------------------------3~~~3-3~~---------------------------|  Where pain bounds our souls.

-

e|----------------------|
B|-1 1-1 1-1 1-1 1------|
G|-2 2-2 2-2 2-2 2------| + 2x Riff 4
D|-2 2-2 2-2 2-2 2------|
A|-0 0-0 0-0 0-0 0------|
E|----------------------|

e|-----------------------------------------------------------------------|
B|----------------------------------1-1-0-0-1--1-1-0-0-1--1-1-0-0--------|
G|----------------------------------2-2-2-2-2--2-2-2-2-2--2-2-2-2--------|
D|----------------------------------2-2-2-2-2--2-2-2-2-2--2-2-2-2--------| + Riff 5
A|----------------------------------0-0-0-0-0--0-0-0-0-0--0-0-0-0--------|
E|-----------------------------------------------------------------------|  Aeons of suffering...

-

e|-----------------------------------------------------------------|
B|-1-1-0-0-1--1-1-0-0-1--1-1-0-0--2-2-1-1-2--2-2-1-1-2--2-2-1-1----|
G|-2-2-2-2-2--2-2-2-2-2--2-2-2-2--3-3-3-3-3--3-3-3-3-3--3-3-3-3----|
D|-2-2-2-2-2--2-2-2-2-2--2-2-2-2--3-3-3-3-3--3-3-3-3-3--3-3-3-3----|  + 2x Riff 6
A|-0-0-0-0-0--0-0-0-0-0--0-0-0-0--0-0-0-0-0--0-0-0-0-0--0-0-0-0----|  
E|-----------------------------------------------------------------|  Where pain bounds our souls...

Riff 7:
e|--------------------------------------------------------------------------|  x6
B|--------------------------------------------------------------------------|
G|--------------------------------------------------------------------------|
D|--------------------------------------------------------------------------|
A|-3-4-3-4-5--3-4-3-4-5-4-6--3-4-3-4-5--3-4-3-4-6-5-6-5-4-------------------|  
E|-1-2-1-2-3--1-2-1-2-3-2-4--1-2-1-2-3--1-2-1-2-4-3-4-3-2-------------------|
************************************

| /   slide up
| \   slide down
| h   hammer-on
| p   pull-off
| ~   vibrato
| +   harmonic
| x   Mute note
| b   Bend
| pb  Pre-bend
| br  Bend release
| pbr Pre-bend release
| brb Bend release bend

************************************
Добавлено: 22.12.2015
Другие материалы по этой песне:
  • Аккорды и текст

Страница создана 22.12.2015
http://primanota.ru/hate/threnody-chords.htm
Привет, Гость.
Предлагаем пройти революционный курс по гитаре.
Подарок от PrimaNota.Ru, забирай!