PrimaNota.ru - самый крупный в мире бесплатный архив песенных текстов, аккордов, табулатур и нот


Гендель Георг Фридрих - Ларго из арии (опера "Ксеркс") - аккорды и текст, видео

Регистрация Запомнить меня
Войти через:  Facebook Google Twitter Vk Yandex Mail.ru

Гендель Георг Фридрих - Ларго из арии (опера "Ксеркс") - аккорды и текст, видео

Печатать
Просмотров: 358
Ларго из арии (опера "Ксеркс")
Гендель Георг Фридрих
Строй: DADGBE
 
E|-----------|------------|-----------|------------|---------|
B|-3---------|------------|-----------|------------|---------|
G|-0---0--0--|-4--2--2--0-|-0---0--0--|-0----------|---------|
D|-0---0--0--|-4--4--4----|-2---2--2--|-0--4--2--0-|-0--0--0-|
A|-2---2--2--|-5--5--5----|-2---2--2--|-2--5--3----|-2--2--2-|
D|-5---5--5--|-0--0--0----|-2---2--2--|----4--2----|-5--5--5-|

E|-------------|-----------|-0--0--2--|-3---------|------------|
B|-------------|-----------|-------3--|-3----3-3--|---5-1------|
G|-------0-2-4-|-2----0-2--|-2--2--2--|-0--0---0--|-0---0----4-|
D|-2--4--------|-4--4-2-4--|-4--4-----|-----------|-2---2--4---|
A|-3--3--2-----|-5--5---5--|-3--3--3--|-2--2---2--|-3---0--5---|
D|-5--4--5-----|-0------0--|----------|-----------|--------0---|

E|---------|-------------|----------|----------|----------|
B|---------|-------------|----------|-1--1-----|----------|
G|-0--0--0-|-0-----------|----------|-0--2--4--|-2----0-0-|
D|-0--0--0-|-----4--2--0-|-0--0--0--|-2--0--0--|-2--0---0-|
A|-2--2--2-|-3---3--3----|-2--2--2--|----------|-3--3---2-|
D|---------|-5---4--2----|-5--5--5--|-2--4--5--|----------|

E|-2--2-----|------0-----|------------|----------|----------|
B|-------5--|-4------4-5-|------------|----1-----|-1--------|
G|-5--5--4--|-2--2-----0-|-5-2--------|----2--0--|----4-2-4-|
D|-4--4--2--|-1--1-----2-|-2---4--1-2-|-2--2--2--|-4--0---0-|
A|-0--0-----|----2-----3-|-0---7--2---|-2--0--0--|----5---5-|
D|-------5--|-4----------|-----4--4---|-2--------|-0--5---5-|

E|---------0--|-(0)----------|---------|-3--3--2--|-----------|
B|------------|------3--1--0-|-------3-|-3--3--3--|-7--5--3-3-|
G|-2--0-2--2--|-(2)--0--2----|-4--0----|-0--0--0--|-5--5------|
D|-4--2-4--4--|-(4)--0--4----|----0--4-|-0--0--0--|-5--5----4-|
A|-5----5--3--|-(3)--2-------|-5-----0-|-2--2--2--|-3--3----0-|
D|-0----------|---------0----|-5-----0-|----------|---------0-|

E|------------|-----------|-----------2-|-3--(3)-(3)-(3)-|
B|-3-2-2----2-|-3----5-3--|-1-0-------3-|-3---1---0---1--|
G|-----0--0---|--------0--|-0---2-----2-|-0--(0)-(0)-(0)-|
D|-5---2--2---|-4--4------|-2---0--4----|-2--(2)-(2)-(2)-|
A|-0---0--0---|-0--3---2--|--------5----|----------------|
D|------------|-0---------|-2---4--0----|-2--(2)-(2)-(2)-|

E|-(3)------|---------------|---------|-----|
B|-(1)------|---------------|---------|-----|
G|-(0)------|-2-4-5-4--2--0-|-0-------|-(0)-|
D|-(2)------|-2-----4--4----|---------|-----|
A|----------|-3-----5--0----|-2-------|-(2)-|
D|-(2)------|-------0--0----|-5-------|-(5)-|
Добавлено: 29.09.2013
Другие материалы по этой песне:
  • Аккорды и текст

Страница создана 29.09.2013
http://primanota.ru/handel-george-frideric/largo-iz-arii-opera-kserks-chords.htm
Привет, Гость.
Предлагаем пройти революционный курс по гитаре.
Подарок от PrimaNota.Ru, забирай!