PrimaNota.ru - самый крупный в мире бесплатный архив песенных текстов, аккордов, табулатур и нот


Гендель Георг Фридрих - Минуэт в D из "Водной музыкальной сюиты" - аккорды и текст

Регистрация Запомнить меня
Войти через:  Facebook Google Twitter Vk Yandex Mail.ru

Гендель Георг Фридрих - Минуэт в D из "Водной музыкальной сюиты" - аккорды и текст

Печатать
Просмотров: 130
Минуэт в D из "Водной музыкальной сюиты"
Гендель Георг Фридрих
Строй:  6-ая струна D
Размер: 3/4
 
E|-2--2--2-|-2--2-3-2-3-|-5--5--5--|-------------7--|--3--3--3-|
B|-3--3--3-|-3--3-5-3---|-3--3--3--|--10--8--10-----|--0--0--0-|
G|---------|------------|----------|---7------------|----------|
D|----0----|-0----------|----------|----------------|----------|
A|-------4-|----0---2---|----------|----------------|----------|
D|-0-------|------------|-4--4--4--|---9------------|--2--5--2-|

E|-------------5--|--2--2-2-2-2--|--2---------||-----------|
B|-8-----7--8-----|--3--3-3-3-3--|--3--------.||.----------|
G|-6--------------|--------------|-----------.||.--2--2--2-|
D|----7-----------|--0--0-0-0-0--|-----------.||.--4--4--4-|
A|-0-----------0--|--------------|--------0---||---5-----5-|
D|----------------|--------------|--0--4------||------0----|

E|----------|--------------|-----------|-----------|----------|
B|----0--2--|--3--3-3-3-3--|--3--------|--0--------|----------|
G|-2--------|-----------0--|--2-----2--|--0--2--0--|----------|
D|-2--2--2--|--4--4-4-4----|--------4--|-----4--2--|--4--2--0-|
A|-4--4--4--|--2--2---2----|-----------|-----2--4--|--5--4--2-|
D|----------|--------------|--4-----0--|--5--------|----------|

E|------------|-----------|--2--3--5--3--2--|--0--2--3--2--0-|
B|------------|-----------|--3--------------|----------------|
G|------------|-----------|-----------------|----------------|
D|-2----------|-----------|--0--------4-----|--2-------------|
A|-0--0-0-0-0-|--0--4--0--|-----------------|--------0-------|
D|------------|-----------|--------0--------|----------------|

E|-2--3--5--3--2-|-0--2--3--2--0--|--2--3--5--3--|--2--3-2-0-2-|
B|-3-------------|----------------|--3--5--7--5--|--3----------|
G|---------------|----------------|--------------|-------------|
D|-0--------4----|-2--------------|--0-----------|--0----------|
A|---------------|-------0--------|-----------0--|---------0---|
D|-------0-------|----------------|--------0-----|-----4-------|

E|-------------|-------------|
B|-3--3-3-3-3--|--3--------.-|
G|-------------|-----------.-|
D|-4--4-4-4-4--|--4--------.-|
A|-------------|-------------|
D|-0--0-0-0-0--|--0----------|
Добавлено: 02.11.2013
Другие материалы по этой песне:
  • Аккорды и текст

Страница создана 02.11.2013
http://primanota.ru/handel-george-frideric/minuet-v-d-iz-vodnoi-muzykalnoi-syuity-chords.htm
Привет, Гость.
Предлагаем пройти революционный курс по гитаре.
Подарок от PrimaNota.Ru, забирай!