PrimaNota.ru - самый крупный в мире бесплатный архив песенных текстов, аккордов, табулатур и нот


Hammerfall - Life Is Now - таба, видео

Регистрация Запомнить меня
Войти через:  Facebook Google Twitter Vk Yandex Mail.ru

Hammerfall - Life Is Now - таба, видео

Печатать
Просмотров: 247
Авторы музыки: Oscar Dronjak, Joacim Cans
Авторы текста: Oscar Dronjak, Joacim Cans
Awesome song!!!!!!!!!Here we go!:


1st Intro:

1st guitar:

e-------------------------------------------------------|
B--9-7-----7-5--9-7-----7-5--9-7---7-5-----5-------7----|
G-9---9-7-5---5----9-7-5---7----7-5---7-5-7-7-5-7-9-9-7-|
D-------------------------------------------------------|
A-------------------------------------------------------|
E-------------------------------------------------------|x2


2nd guitar:

e-1----0----1----0----3----0----3----1----3-|
B-3----0----3----0----2----0----2----3----2-|
G-2----1----2----1----3----1----3----2----3-|
D-0----2----0----2----0----2----0----0----0-|
A------2---------2---------2----------------|
E-------------------------------------------|x2

__________________________________________________________________________

2nd intro:

1st guitar:

e--------------------------------------------------------|
B--9-7-----7-5--9-7-----7-5--9-7---7-5-----5-------7b----|
G-9---9-7-5---5----9-7-5---7----7-5---7-5-7-7-5-7-9------|
D--------------------------------------------------------|
A--------------------------------------------------------|
E--------------------------------------------------------|



2nd guitar:

e-------------------------------------------|
B-------------------------------------------|
G-7----5----7----5----9----5----9----7----9-|
D-7----5----7----5----9----5----9----7----9-|
A-5----3----5----3----7----3----7----5----7-|
E-------------------------------------------|

Verse:

e-----------------------------------------------|
B-----------------------------------------------|
G-7/-8------7-9-9--6-8-8--7-----7-9-9--6-8-8--7-|
D-7/-8------7-9-9--6-8-8--7-----7-9-9--6-8-8--7-|
A-5/-6------7-7-7--6-6-6--5-----7-7-7--6-6-6--5-|
E-----------------------------------------------|


e----------------------------------------------|
B----------------------------------------------|
G-9\-7-7-----7-9-9--6-8-8--7-----9-7-----7-8-9-|
D-9\-7-7-----7-9-9--6-8-8--7-----9-7-----7-8-9-|
A-7\-5-5-----7-7-7--6-6-6--5-----7-7-----5-6-7-|
E----------------------------------------------|


Pre-Chorus:

e-----------------------------------------|
B-----------------------------------------|
G-7---5---6---7---5---6---8---------------|
D-7---5---6---7---5---6---8-------------8-|
A-5---3---4---5---3---4---6-6-6-6-6-6-6-6-|
E-----------------------------------------|


Chorus:

e------------------------|
B------------------------|
G-7--8--6--7--5--7--8--7-|
D-7--8--6--7--5--7--8--7-|
A-5--6--4--5--3--5--6--5-|
E------------------------|


Tabbed by elias stasi
Добавлено: 18.04.2012
Другие материалы по этой песне:
  • Аккорды и текст

Страница создана 18.04.2012
http://primanota.ru/hammerfall/life-is-now-chords.htm
Привет, Гость.
Предлагаем пройти революционный курс по гитаре.
Подарок от PrimaNota.Ru, забирай!