PrimaNota.ru - самый крупный в мире бесплатный архив песенных текстов, аккордов, табулатур и нот


Hall & Oates - Sarah Smiles - таба, видео

Регистрация Запомнить меня
Войти через:  Facebook Google Twitter Vk Yandex Mail.ru

Hall & Oates - Sarah Smiles - таба, видео

Печатать
Просмотров: 144
Уроки эстрадного вокала в Санкт-Петербурге
  THIS SONG WAS TABED ON BY ME AND IS DONE FOR A SPEICAL SOMEONE.. MY SARAH.. I WORK 
ON THIS I HOPE YOU ENJOY IT ITS A LITTLE HARD BUT U'LL GET THE HANG OF IT ITS A GREAT SONG :}


e|--------------------------------------------------13--------------|
B|----11hb13R--10--8-------------6---6---6hb8R----------------------|
D|---------------------------------7-------------7------------------|
g|------------------------------------------------------------------|
a|------------------------------------------------------------------|
E|------------------------------------------------------------------|


e|------------------------------------------------------------------|
B|-13-13-13---11hb13--10--8---6-6866--------6-6-9-6-------3---6/13--|
D|-----------------------------7------------------------------------|
g|------------------------------------------------------------------|
a|------------------------------------------------------------------|
E|------------------------------------------------------------------|

e|------------------------------------------------------------------|
B|------------------------------------------------------------------|
D|----6--8--6---13--------------------------------------------------|
g|------------------------------------------------------------------|
a|------------------------------------------------------------------|
E|------------------------------------------------------------------|

THATS THE INTRO I WORKED ON IT FOR AN HOURS SO PLAY WITH THE SONG WHEN U GET THE HANG OF 
NOW HERE IS TE CHORDING FOR THE SONG

Dm7       Am
Baby hair with a woman's eyes
Bbmaj7                  A7
I can feel you watching in the night
Dm7               Am                        Bbmaj7    Gm   A7
All alone with me and we're waiting for the sunlight
Bb          C         Dbdim  Dm7
When I feel cold, ya warm   me
            Bb             C                D#  Dm7
And when I feel I can't go on, you come and hold me
     Gm7
It's you...and me forever
      Dm7    Am7     Gm7     C Db
Sarah (smile) smile
               Dm7    Am7     Gm7     C
Oh, won't you smile awhile for me, Sarah...
Dm7                      Am
If you feel like leaving you know you can go
Bbmaj7                       A7
But why don't you stay until tomorrow?
Dm7                   Am                                 Bbmaj7    Gm   A7
If you want to be free you know, all you've got to do is say so
Bb          C         Dbdim  Dm7
When you feel cold, I'll warm you
             Bb                C                 D#   Dm7
And when you feel you can't go on, I'll come and hold you
     Gm7
It's you...and me forever
       Dm7    Am7     Gm7     C Db
Sarah (smile) smile
              Dm7    Am7     Gm7     C
Oh, won't you smile awhile for me, Sarah
        Dm7    Am7     Gm7     C Db
Sarah (smile) smile
              Dm7    Am7     Gm7     C
Oh, won't you smile awhile, Sarah...
  Dm7
 smile
             Dm7    Am7     Gm7     C
Oh, won't you smile awhile for me, Sarah

smile awhile won't you laugh and sing sarah..
Добавлено: 05.03.2012
Другие материалы по этой песне:
  • Аккорды и текст

Страница создана 05.03.2012
http://primanota.ru/hall-and-oates/sarah-smiles-chords.htm
Привет, Гость.
Предлагаем пройти революционный курс по гитаре.
Подарок от PrimaNota.Ru, забирай!