PrimaNota.ru - самый крупный в мире бесплатный архив песенных текстов, аккордов, табулатур и нот


Hall & Oates - Out Of Touch Live - аккорды и текст, видео

Регистрация Запомнить меня
Войти через:  Facebook Google Twitter Vk Yandex Mail.ru

Hall & Oates - Out Of Touch Live - аккорды и текст, видео

Печатать
Просмотров: 104
Уроки эстрадного вокала в Санкт-Петербурге
Out Of Touch Live
Hall & Oates
Daryl Hall & John Oates - Out of Touch [Live, A&E]
>From the DVD/CD "Hall & Oates - A&E Live by Request"
Tabulated as interpreted by Reed Peterson

*Standard Tuning*

CHORDS
Am          G             G6            F            F7M  
e|---5---     e|---3---     e|---0---     e|---1---    e|---0---
B|---5---     B|---3---     B|---0---     B|---1---    B|---1---
G|---5---     G|---4---     G|---0---     G|---2---    G|---2---
D|---7---     D|---5---     D|---0---     D|---3---    D|---3---
A|---7---     A|---5---     A|---0(X)-    A|---3---    A|---X---
E|---5---     E|---3---     E|---0(X)-    E|---1---    E|---X---

E             Cadd9         G/B           Amin(open)   Amin(add11)/D
e|---0---     e|---3---     e|---3---     e|---0---    e|---0---
B|---0---     B|---3---     B|---3---     B|---1---    B|---1---
G|---1---     G|---0---     G|---0---     G|---2---    G|---2---
D|---2---     D|---2---     D|---0---     D|---2---    D|---0---
A|---2---     A|---3---     A|---2---     A|---0---    A|---X---
E|---0---     E|---X---     E|---X---     E|---X---    E|---X---

D             Dm7
e|---5---     e|---5---
B|---3---     B|---2---
G|---3---     G|---5---
D|---3---     D|---3---
A|---5---     A|---5---
E|---5---     E|---5---

VERSE 1-
G
Shakin' up . . .
F
Usin' our bodies . . .
G
I'm wakin' . . .
F
The shades . . .

e|---------------3----------3---------0--------------------------------
B|---------------3----------3---------1--------------------------------
G|------------0----------0---------2-----------------------------------
D|---------2----------0---------2--------------------------------------
A|------3----------2---------0-----------------------------------------
E|---------------------------------------------------------------------
      Cadd9        G/B       Amin(open)
Broken ice . . .
F                         G
And ties . . . be one again

e|---------------3----------3---------0--------------------------------
B|---------------3----------3---------1--------------------------------
G|------------0----------0---------2-----------------------------------
D|---------2----------0---------2--------------------------------------
A|------3----------2---------0-----------------------------------------
E|---------------------------------------------------------------------
      Cadd9        G/B       Amin(open)
We're soul alone. . .
F
Take a look around

CHORUS 1
F
You're out of touch
Amin(add11)/D     G
I'm out of time
Am       G6        F7M               E
But I'm out . . .
F
You're out of touch
Amin(add11)/D     G
I'm out of time
Am       G         Am              G
But I'm out . . .
F          Amin(add11)/D        G         Am

VERSE 2
G
Reachin' out . . .
F
Lookin' for a . . .
G
Manic moves . . .
F
Or (We're) livin' . . .

e|---------------3----------3---------0--------------------------------
B|---------------3----------3---------1--------------------------------
G|------------0----------0---------2-----------------------------------
D|---------2----------0---------2--------------------------------------
A|------3----------2---------0-----------------------------------------
E|---------------------------------------------------------------------
      Cadd9        G/B       Amin(open)
Smokin' guns . . .
F                      G
Would cool . . . so much

e|---------------3----------3---------0--------------------------------
B|---------------3----------3---------1--------------------------------
G|------------0----------0---------2-----------------------------------
D|---------2----------0---------2--------------------------------------
A|------3----------2---------0-----------------------------------------
E|---------------------------------------------------------------------
      Cadd9        G/B       Amin(open)
We're soul alone. . .
F
Too much

CHORUS 2
F
You're out of touch
Amin(add11)/D     G
I'm out of time
Am       G6        F7M               E
But I'm . . .
F
You're out of touch
Amin(add11)/D     G
I'm out of time
Am       G         Am              G
But I'm . . .
F
Ooh
Amin(add11)/D     G
Oh-woh-oh
Am       G6        F7M               E
Oh-woh-oh (ooooooooooooo. . .)
F
Ooh
Amin(add11)/D     G
Oh-woh-oh (ohhhhhhhhhhhhhh, that's right . . .)

BRIDGE - Key change here - play the following chord progression as Daryl 
freestyles and T-Bone shows off. . .

D       Dm7        D       Dm7       D       Dm7


CHORUS 3 - The band sings the third chorus a cappela, clapping out the beat 
- there's a short break right before "FINAL CHORUS" (after the band sings 
their last "you're out of touch" in "CHORUS 3"), where they strum out . . .

E     E     E     E . . . about 12 times

and then . . .

FINAL CHORUS
F
You're out of touch
Amin(add11)/D     G
I'm out of time
Am       G6        F7M               E
But I'm out . . .
F
You're out of touch
Amin(add11)/D     G
I'm out of time
Am       G         Am              G
But I'm out . . .

Repeat this progression over and over again as Daryl freestyles, and when 
the song finally comes to and end, bang out an "Amin" as the closing chord.

NOTE: If some of this tablature seems unclear (i.e. the rhythm, the timing, 
the transitions, the ending, etc.), just listen to the song - it should be 
pretty self-explanatory.  Also, feel free to replace "Amin(add11)/D" with a 
basic "Dm" if it sounds better.  This tab should also work fairly well with 
the studio recording.

_________________________________________________________________
     
Добавлено: 17.06.2013
Другие материалы по этой песне:
  • Аккорды и текст

Страница создана 17.06.2013
http://primanota.ru/hall-and-oates/out-of-touch-live-chords.htm
Привет, Гость.
Предлагаем пройти революционный курс по гитаре.
Подарок от PrimaNota.Ru, забирай!