PrimaNota.ru - самый крупный в мире бесплатный архив песенных текстов, аккордов, табулатур и нот


Halestorm - Out Ta Get Me - текст песни, таба, видео

Регистрация Запомнить меня
Войти через:  Facebook Google Twitter Vk Yandex Mail.ru

Halestorm - Out Ta Get Me - текст песни, таба, видео

Печатать
Просмотров: 209
Авторы: Slash, Izzy Stradlin, Axl Rose, Steven Adler, Duff McKagan

Out Ta Get Me (Guns N' Roses) - Halestorm
Tabbed by Catherine

Intro

E --------------------------------------------------|
B --------------------------------------------------|
G --------------------------------------------------|    x4
D --4-7-4---4-2-4-4---9-7---4-7-4---4-2-4-4---9-7---|
A --4-7-4---4-2-4-4---9-7---4-7-4---4-2-4-4---9-7---|
D --4-7-4---4-2-4-4---9-7---4-7-4---4-2-4-4---9-7---|

Verse:
“Been hidin' out and layin' low...”

E -----------------------------------------------------------------|
B -----------------------------------------------------------------|
G -----------------------------------------------------------------|
D --4-7-4--4-4-4-4-4-4-4-4---9-7---4-7-4--4-4-4-4-4-4-4-4---9-7----|
A --4-7-4--4-4-4-4-4-4-4-4---9-7---4-7-4--4-4-4-4-4-4-4-4---9-7----|
D --4-7-4--4-4-4-4-4-4-4-4---9-7---4-7-4--4-4-4-4-4-4-4-4---9-7----|
           pm.............               pm..............

E --------------|
B --------------|
G --------------|
D --9-10-11-11--|
A --9-10-11-11--|
D --9-10-11-11--|


Pre-pre-chorus:
“They break down the doors...”

E --------------------------------------------------------------------------------|
B --------------------------------------------------------------------------------|
G --------------------------------------------------------------------------------|
D --11-11-11-11-11-11-11-11-11-11-11-11-11-11-11-9-9-9-9-9-9-9-9-9-9-9-9-9-9-9-9--|
A --11-11-11-11-11-11-11-11-11-11-11-11-11-11-11-9-9-9-9-9-9-9-9-9-9-9-9-9-9-9-9--|
D --11-11-11-11-11-11-11-11-11-11-11-11-11-11-11-9-9-9-9-9-9-9-9-9-9-9-9-9-9-9-9--|

OR:
(line this up with the vocals as you ascend & descend the neck)
“They won't touch me...”

E ------------------------------------------------------|
B ------------------------------------------------------|
G ------------------------------------------------------|
D --9-10-11-11----11-11-11-11-11-11-9-9-11-9-9-7-6-6-4--|
A --9-10-11-11----11-11-11-11-11-11-9-9-11-9-9-7-6-6-4--|
D --9-10-11-11----11-11-11-11-11-11-9-9-11-9-9-7-6-6-4--|


Pre-chorus:
“‘Cause I got something...”

E -----------------------------------------------------------|
B -----------------------------------------------------------|
G -----------------------------------------------------------|
D --9-9-9-9-9-9-9-9-9-9-9-9-9-9-9-9-9-7-7-7-7-7-7-7-7-6-6-6--|
A --9-9-9-9-9-9-9-9-9-9-9-9-9-9-9-9-9-7-7-7-7-7-7-7-7-6-6-6--|
D --9-9-9-9-9-9-9-9-9-9-9-9-9-9-9-9-9-7-7-7-7-7-7-7-7-6-6-6--|


Chorus:
“They're out ta get me...”

E --------------------------------------------------|
B --------------------------------------------------|
G --------------------------------------------------|
D --4-7-4---4-2-4-4---9-7---4-7-4---4-2-4-4---9-7---|
A --4-7-4---4-2-4-4---9-7---4-7-4---4-2-4-4---9-7---|
D --4-7-4---4-2-4-4---9-7---4-7-4---4-2-4-4---9-7---|

Repeat ^ for second verse & chorus, and then:

“Oh no-oh...”

E --------------------------------------------------------------------|
B --------------------------------------------------------------------|
G --------------------------------------------------------------------|
D --9-9-9-9-9-9-9-9-9-9-9-9-9-9-9-9-4-4-4-4-4-4-4-4-4-4-4-4-4-4-4-4---|
A --9-9-9-9-9-9-9-9-9-9-9-9-9-9-9-9-4-4-4-4-4-4-4-4-4-4-4-4-4-4-4-4---|
D --9-9-9-9-9-9-9-9-9-9-9-9-9-9-9-9-4-4-4-4-4-4-4-4-4-4-4-4-4-4-4-4---|

Last time:

E ---------------------------|
B ---------------------------|
G ---------------------------|
D --11-11-11-11-11-11-11-11--|
A --11-11-11-11-11-11-11-11--|
D --11-11-11-11-11-11-11-11--|

“Let me see you try...”

E -----------------------------------------------------|
B -----------------------------------------------------|
G -----------------------------------------------------|
D --6-9-6---6-4-6-6---11-9---6-9-6---6-4-6-6---11-9----|
A --6-9-6---6-4-6-6---11-9---6-9-6---6-4-6-6---11-9----|
D --6-9-6---6-4-6-6---11-9---6-9-6---6-4-6-6---11-9----|

Interlude-ish thing:

E ------------------------------------------|
B ------------------------------------------|
G ------------------------------------------|
D --6-4-9-7---6-4-4-2----6-4-9-7---6-4-4-2--|  x2
A --6-4-9-7---6-4-4-2----6-4-9-7---6-4-4-2--|
D --6-4-9-7---6-4-4-2----6-4-9-7---6-4-4-2--|
(you can mute the bottom string if you'd like)

E ------------------------------------------------|
B ------------------------------------------------|
G ------------------------------------------------|
D --8-12-9-15---8-12-9-6---6-9-7-13---8-11-15-17--|
A --8-12-9-15---8-12-9-6---6-9-7-13---8-11-15-17--|
D --8-12-9-15---8-12-9-6---6-9-7-13---8-11-15-17--|

“Some people got a chip on their shoulder...”

E -------------------------------------------------------------------|
B -------------------------------------------------------------------|
G -------------------------------------------------------------------|
D --6-9-6--6-6-6-6-6-6-6-6---11-9---6-9-6--6-6-6-6-6-6-6-6---11-9----|
A --6-9-6--6-6-6-6-6-6-6-6---11-9---6-9-6--6-6-6-6-6-6-6-6---11-9----|
D --6-9-6--6-6-6-6-6-6-6-6---11-9---6-9-6--6-6-6-6-6-6-6-6---11-9----|
           pm.............               pm..............

The part with just vocals and this riff:
“They're out ta get me...”

E --------------------------------------------------|
B --------------------------------------------------|
G --------------------------------------------------|
D --------------------------------------------------|
A --------------------------------------------------|
D --4-7-4---4-2-4-4---9-7---4-7-4---4-2-4-4---9-7---|

“They're out ta get me...” (last time)
E --------------------------------------------------|
B --------------------------------------------------|
G --------------------------------------------------|
D --4-7-4---4-2-4-4---9-7---4-7-4---4-2-4-4---9-7---|
A --4-7-4---4-2-4-4---9-7---4-7-4---4-2-4-4---9-7---|
D --4-7-4---4-2-4-4---9-7---4-7-4---4-2-4-4---9-7---|

“Take that one to heart!”

E --------------------|
B --------------------|
G --------------------|
D --9---7---4----4\0--|
A --9---7---4----4\0--|
D --9---7---4----4\0--|



*It is not perfect, and is wrong in some places, but this is my first tab ever. Please enjoy! :)
Добавлено: 17.07.2013
Другие материалы по этой песне:
  • Аккорды и текст

Страница создана 17.07.2013
http://primanota.ru/halestorm/out-ta-get-me-chords.htm
Привет, Гость.
Предлагаем пройти революционный курс по гитаре.
Подарок от PrimaNota.Ru, забирай!