PrimaNota.ru - самый крупный в мире бесплатный архив песенных текстов, аккордов, табулатур и нот


Halestorm - Conversation Over - текст песни, таба, видео

Регистрация Запомнить меня
Войти через:  Facebook Google Twitter Vk Yandex Mail.ru

Halestorm - Conversation Over - текст песни, таба, видео

Печатать
Просмотров: 237
This song could possibly be in Drop C# but it would be pointless
to tune to it because the open C# is not used in the song!
All my other Halestorm tabs are in Drop D and
this tab sounds great in it as well.

s = slide
/s/ = slide out/down the neck
h = hammer-on
v = vibrato
b = bend
br = bend then release

Intro (0:00)(not palm-muted) and Verse (0:14)(palm-muted)
e|--------------------------------------------------------------------------|
B|--------------------------------------------------------------------------|
G|--------------------------------------------------------------------------|
D|--------------------------------------------------------------------------|
A|-6-6--4-4-4--6-6-6--4--9-9------------------------------------------------|
D|-6-6--4-4-4--6-6-6--4--9-9------------------------------------------------|

Pre-Chorus (0:27)(Comes in from the verse:)
e|--------------------------------------------------------------------------|
B|--------------------------------------------------------------------------|
G|--------------------------------------------------------------------------|
D|-----------------6-8-9-8------6-8-9-8-------------------------------------|
A|-6-6--4-4-4--6-6----------6-6-----------6-6-------------------------------|
D|-6-6--4-4-4--6-6----------6-6-----------6-6-------------------------------|
   PM-------|

Chorus Rhythm (0:33)
e|--------------------------------------------------------------------------|
B|--------------------------------------------------------------------------|
G|--------------------------------------------------------------------------|
D|--------------------------------------------------------------------------|
A|-22222222-44444444-66666666-99998888--------------------------------------|
D|-22222222-44444444-66666666-99998888--------------------------------------|

Chorus Lead I (0:33)
e|--------------------------------------------------------------------------|
B|--------------------------------------------------------------------------|
G|--------------------------------------------------------------------------|
D|-4s6-6-6-6s4-4-4-4s9-9-9-9s11-11-11---------------------------------------|
A|--------------------------------------------------------------------------|
D|--------------------------------------------------------------------------|

Chorus Lead II (0:36)
e|--------------------------------------------------------------------------|
B|--------------------------------------------------------------------------|
G|--------------------------------------------------------------------------|
D|-4s6-6-6-6s4-4-4-4s6-6-6-6s4-4s9------------------------------------------|
A|--------------------------------------------------------------------------|
D|--------------------------------------------------------------------------|

(0:47) Play Intro Once

Break Rhythm (0:50)(Just chugging this G#5 chord)
e|--------------------------------------------------------------------------|
B|--------------------------------------------------------------------------|
G|--------------------------------------------------------------------------|
D|-6------------------------------------------------------------------------|
A|-6------------------------------------------------------------------------|
D|-6------------------------------------------------------------------------|
 PM--|

Break Lead (0:50) (Tricky, listen for timing and add some vibrato)
Get Out!
e|--------------------------------------------------------------------------|
B|--------------------------------------------------------------------------|
G|-15-13--13-13-13-----15-13--13-13-13--------------------------------------|
D|--------------------------------------------------------------------------|
A|--------------------------------------------------------------------------|
D|--------------------------------------------------------------------------|

(0:57) Play Verse, Pre-Chorus, Chorus, Break

Bridge (1:37)
e|--------------------------------------------------------------------------|
B|--------------------------------------------------------------------------|
G|-13-13--11-11-11--13-13-13--11--16-16-------------------------------------|
D|--------------------------------------------------------------------------|
A|-11-11--9--9--9---11-11-11--9---14-14-------------------------------------|
D|--------------------------------------------------------------------------|

Solo Rhythm (1:48)
e|--------------------------------------------------------------------------|
B|--------------------------------------------------------------------------|
G|--------------------------------------------------------------------------|
D|--------------------------------------------------------------------------|
A|-22222222-44444444-66666666-99999999--------------------------------------|
D|-22222222-44444444-66666666-99999999--------------------------------------|

Solo Rhythm (1:48)
e|--------------------------------------------------------------------------|
B|--------------------------------------------------------------------------|
G|--------------------------------------------------------------------------|
D|--------------------------------------------------------------------------|
A|-22222222-44444444-66666666-14-14-14-14-14-14-14-14-----------------------|
D|-22222222-44444444-66666666-14-14-14-14-14-14-14-14-----------------------|

Solo Rhythm (2:02)
e|--------------------------------------------------------------------------|
B|--------------------------------------------------------------------------|
G|--------------------------------------------------------------------------|
D|--------------------------------------------------------------------------|
A|-11-11-11-11-11-11-11-11-11-11-11-11-11-11-11-11--------------------------|
D|-11-11-11-11-11-11-11-11-11-11-11-11-11-11-11-11--------------------------|

Solo Lead (1:48)
e|--------------------------------------------------------------------------|
B|--------------------------------------------------------------------------|
G|-11-13-11-13v--11-13-11-13v--11h13-13b--13b---11h13v----------------------|
D|--------------------------------------------------------------------------|
A|--------------------------------------------------------------------------|
D|--------------------------------------------------------------------------|

Solo Lead (1:55)                        Play momentarily then slide out
e|--------------------------------------------------------------------------|
B|-14b---------14b-14b-14b--12----------12/s/-------------------------------|
G|-----------------------------13-13v---------------------------------------|
D|--------------------------------------------------------------------------|
A|--------------------------------------------------------------------------|
D|--------------------------------------------------------------------------|

Solo Lead (2:02)                vibrato and sustain forever
e|-14b--------14br-12-------------------------------------------------------|
B|--------------------14br-12-----------------------------------------------|
G|-----------------------------13vvvv---------------------------------------|
D|--------------------------------------------------------------------------|
A|--------------------------------------------------------------------------|
D|--------------------------------------------------------------------------|

(2:05) Play Verse (Rhythm only because lead is still
sustaining last note of solo), Pre-Chorus,
and then after a slight delay: Chorus and Break

End of Song. Enjoy.
Добавлено: 01.08.2013
Другие материалы по этой песне:
  • Аккорды и текст

Страница создана 01.08.2013
http://primanota.ru/halestorm/conversation-over-chords.htm
Привет, Гость.
Предлагаем пройти революционный курс по гитаре.
Подарок от PrimaNota.Ru, забирай!