PrimaNota.ru - самый крупный в мире бесплатный архив песенных текстов, аккордов, табулатур и нот


Halestorm - Dont Know How To Stop - таба, видео

Регистрация Запомнить меня
Войти через:  Facebook Google Twitter Vk Yandex Mail.ru

Halestorm - Dont Know How To Stop - таба, видео

Печатать
Просмотров: 115
Авторы: Jason Keith Perry, Jim Irvin, Lzzy Hale, Julian Emery

Halestorm
Don't Know How To Stop
Drop D
By DaveMustaine7

 s   = slide from-to /or/ slide down neck
 v   = vibrato
 p   = pull off
 tr  = trill
 b   = full bend
 bh  = half bend
 prb = prebend the string then strike string and let down
PM-| = Palm mute

Intro (0:00) [Joe's Guitar]
e|--------------------------------------------------|
b|--------------------------------------------------|
g|--------------------------------------------------|
D|----------------------------------------12-12-12s-|
A|8-8-10-10s5-5-5--10-8-8v--8-8-10-10s3-5-10-10-10s-|
D|8-8-10-10s5-5-5--10-8-8v--8-8-10-10s3-5-----------| x2

Intro (0:00) [Lzzy's Guitar]
e|--------------------------------------------------|
b|--------------------------------------------------|
g|---------------------------------7-7-7s-----------|
D|3-3-5-5s-----5-3-3v--3-3-5-5-----5-5-5s-----------|
A|1-1-3-3s-5-5-3-1-1v--1-1-3-3-3-5------------------|
D|---------5-5-----------------3-5------------------| x2


Verse (0:16) [Joe's Guitar]
e|--------------------------------------------------|
b|--------------------------------------------------|
g|12--14--15--14------------------------------------|
D|--12--12--12--12----------------------------------|
A|--------------------------------------------------|
D|--------------------------------------------------| x6

Rhythm Fills (0:32)(0:35) [Lzzy]
e|-------|------------------------------------------|
b|-------|------------------------------------------|
g|-------|------------------------------------------|
D|5s-----|3-3-5-------------------------------------|
A|3s-----|1-1-3-5s----------------------------------|
D|-------|------5s----------------------------------|

Lead Fill 1 (0:39 - 0:45) [Joe, Fades In]
e|--------------------------------------------------|
b|--------------------------------------------------|
g|12p10tr12-----------------------------------------|
D|--------------------------------------------------|
A|--------------------------------------------------|
D|--------------------------------------------------|

Lead Fill 2 (1:36) [Joe, Second Verse]
e|--------------------------------------------------|
b|--------------------------------------------------|
g|--------------------------------------------------|
D|55555555------------------------------------------|
A|--------------------------------------------------|
D|--------------------------------------------------| x3


Pre-Chorus (0:45) {Only before 1st Chorus}
e|--------------------------------------------------|
b|--------------------------------------------------|
g|--------------------------------------------------|
D|--------------------------------------------------|
A|5555555555555555----------------------------------|
D|5555555555555555----------------------------------|
PM----------------|

Chorus (0:50) [Both Guitars]
e|--------------------------------------------------|
b|--------------------------------------------------|
g|--------------------------------------------------|
D|--------------------------------------------------|
A|11111111--33333333---5555555555555555-------------|
D|11111111--33333333---5555555555555555-------------| x2

Chorus Lead (1:01) [Joe]
e|--------------------------------------------------|
b|10--12---13--15-----------------------------------|
g|12b-14bh-15b-17b----------------------------------|
D|--------------------------------------------------|
A|--------------------------------------------------|
D|--------------------------------------------------|


Chorus (1:05) [Joe]
e|--------------------------------------------------|
b|--------------------------------------------------|
g|--------------------------------------------------|
D|--------------------------------------------------|
A|88888888-10-10-10-10-10-10-10-10------------------|
D|88888888-10-10-10-10-10-10-10-10------------------|

Chorus (1:05) [Lzzy]
e|--------------------------------------------------|
b|--------------------------------------------------|
g|--------------------------------------------------|
D|33333333-55555555---------------------------------|
A|11111111-33333333---------------------------------|
D|--------------------------------------------------|

Fill (1:09) [Joe]
e|--------------------------------------------------|
b|--------------------------------------------------|
g|--------------------------------------------------|
D|--------------------------------------------------|
A|8-8-10-10s5-5-5--10-8-8v--------------------------|
D|8-8-10-10s5-5-5--10-8-8v--------------------------|

Fill (1:09) [Lzzy]
e|--------------------------------------------------|
b|--------------------------------------------------|
g|--------------------------------------------------|
D|3-3-5-5s-----5-3-3v-------------------------------|
A|1-1-3-3s-5-5-3-1-1v-------------------------------|
D|---------5-5--------------------------------------|

(1:13) Play Verse
(1:44) Play Chorus
(2:04) Play Intro [x1]

Bridge (2:12) [Lzzy]
e|--------------------------------------------------|
b|--------------------------------------------------|
g|--------------------------------------------------|
D|33333333----------55555555------------------------|
A|11111111-33333333-33333333-55555555---------------|
D|---------33333333----------55555555---------------|

e|--------------------------------------------------|
b|--------------------------------------------------|
g|--------------------------------------------------|
D|33333333----------5555555555555555----------------|
A|11111111-33333333-3333333333333333----------------|
D|---------33333333---------------------------------|

Bridge (2:12) [Joe]
{He is using a slide on his guitar, since I don't have
one I bend these notes to the same speed as the slide,
bend faster after the first four bends}
e|--------------------------------------------------|
b|--------------------------------------------------|
g|--------------------------------------------------|
D|--------------------------------------------------|
A|10b-12b-10b-12b-14bh-15b-17b----------------------|
D|--------------------------------------------------|

(2:25) [Joe]
{bend the strings a full step without striking them,
then strike and let string down, this is still
supposed to be using a slide}
e|--------------------------------------------------|
b|--------------------------------------------------|
g|--------------------------------------------------|
D|--------------------------------------------------|
A|17prb-15prb-12prb---------------------------------|
D|--------------------------------------------------|


Fill (2:28) [Lzzy's Guitar/Intro]
e|--------------------------------------------------|
b|--------------------------------------------------|
g|---------------------------------7-7-7s-----------|
D|3-3-5-5s-----5-3-3v--3-3-5-5-----5-5-7s-----------|
A|1-1-3-3s-5-5-3-1-1v--1-1-3-3-3-5------------------|
D|---------5-5-----------------3-5------------------|

e|--------------------------------------------------|
b|--------------------------------------------------|
g|--------------------------------------------------|
D|3-3-5-5s-----5-3-3v--3-3-5-5----------------------|
A|1-1-3-3s-5-5-3-1-1v--1-1-3-3-3-5------------------|
D|---------5-5-----------------3-5------------------|

(2:45) Play Chorus
(3:05) Play Intro x5 [Lzzy's Rhythm to be accurate]

Joe is improvising in the key of G Minor over Lzzy in
the end of the song here but most of the lead is covered
by rhythm playing. His outro will change between when
he is playing it live and what was played on the album.
Добавлено: 21.11.2015
Другие материалы по этой песне:
  • Аккорды и текст

Страница создана 21.11.2015
http://primanota.ru/halestorm/dont-know-how-to-stop-chords.htm
Привет, Гость.
Предлагаем пройти революционный курс по гитаре.
Подарок от PrimaNota.Ru, забирай!