PrimaNota.ru - самый крупный в мире бесплатный архив песенных текстов, аккордов, табулатур и нот


Halestorm - Bad Girls World - таба, видео

Регистрация Запомнить меня
Войти через:  Facebook Google Twitter Vk Yandex Mail.ru

Halestorm - Bad Girls World - таба, видео

Печатать
Просмотров: 170
Bad Girl's World
By Halestorm
E Standard Tuning

Tabbed by DaveMustaine7

Key
s   = slide
h   = hammer-on
p   = pull-off
b   = bend
bh  = bend and hold bend
bp  = bend to the note then without picking pull off to the next note
bs  = bend to the note then without picking slide off the bend
br  = the same as a prebend but pick the string and let down the bend you've been holding
(4:51-4:56)
v   = vibrato
vs  = vibrato then without picking slide
t   = tap note without picking strick
(#) = sustain or pick note again
X   = palm muted dead note
pm-|= palm mute selected notes

The song is in the key of F#m
cleans are played with delay and reverb/chorus
Parts for guitar 1 are rhythm and guitar 2 are lead
Tabbed by ear

Intro/Chorus (0:00) (let ring)
e|--------------------------------------------------|
b|------------2-------------------------------------|
g|----2---4-----4-----------------------------------|
D|--4---4---4---------------------------------------|
A|2-------------------------------------------------|
E|--------------------------------------------------| x2

(0:05)
e|--------------------------------------------------|
b|------------2-------------------------------------|
g|----2---4-----4-----------------------------------|
D|--4---4---4---------------------------------------|
A|--------------------------------------------------|
E|2-------------------------------------------------| x2

repeat until pre-chorus

Pre-Chorus / Break (let ring)
(0:35)(0:45)(0:54)           (0:41)(0:48)(0:57)
e|--------------------------------------------------|
b|2--------------------------3v---------------------|
g|4--------------------------4v---------------------|
D|4--------------------------4v---------------------|
A|2--------------------------2v---------------------|
E|--------------------------------------------------|
                             ^use whammy lightly (if you have one)


(1:00) Chorus

(1:47) Pre-Chorus/Break


Solo 1 (2:10) (switch on your lead tone, lots of sustain helps for this song)
e|--------------------------------------------------|
b|--------------------------------------------------|
g|----14----14-16-16b-16bh--------------------------|
D|s16----16-----------------------------------------|
A|--------------------------------------------------|
E|--------------------------------------------------|

(2:16)
e|--------------------------------------------------|
b|17-17--17-----------------------------------------|
g|---16b-16b-16p14h16v------------------------------|
D|--------------------------------------------------|
A|--------------------------------------------------|
E|--------------------------------------------------|

(2:20) I saw Joe play this part live:
e|--------------------------------------------------|
b|--------------------------------------------------|
g|14h16p14s11----11-13p11-11v-----------------------|
D|------------11------------------------------------|
A|--------------------------------------------------|
E|--------------------------------------------------|


//(2:20) [The way I was playing it before]
//e|--------------------------------------------------|
//b|--------------------------------------------------|
//g|14h16---------------------------------------------|
//D|------18-16-------16h18p16v-----------------------|
//A|------------14-16---------------------------------|
//E|--------------------------------------------------|


(2:24) Intro/Chorus on guitar 1


(2:28) leads  (v these two notes are hard to hear)
e|--------------------------------------------------|
b|5-2-----------------------------------------------|
g|----4-4b-4b-2-------------------------------------|
D|--------------4-4v--------------------------------|
A|--------------------------------------------------|
E|--------------------------------------------------|


(2:40) 
e|--------------------------------------------------|
b|-------------14-----------------------------------|
g|-------14-16--------------------------------------|
D|s14-16----------16v-------------------------------|
A|--------------------------------------------------|
E|--------------------------------------------------|



(2:48)
e|--------------------------------------------------|
b|15-14v--------------------------------------------|
g|--------------------------------------------------|
D|--------------------------------------------------|
A|--------------------------------------------------|
E|--------------------------------------------------|


tons of feedback from (2:52) to (2:59)


(3:00)
e|14p12---------------------------------------------|
b|------14-12b-10-12-12b-10-12v---------------------|
g|--------------------------------------------------|
D|--------------------------------------------------|
A|--------------------------------------------------|
E|--------------------------------------------------|


(3:06 to 3:12) more feedback noises



(3:12) Play Pre-Chorus (guitar 1)


(3:35) lead                                (3:38)
e|--------------------------------------------------|
b|--------------------------------------------------|
g|------14----14-16-16bp14---16v--------------------|
D|14h16----16-------------t16--------------16v------|
A|--------------------------------------------------|
E|--------------------------------------------------|



(3:38) Play Chorus (guitar 1)



(3:49) lead
e|--------------------------------------------------|
b|5-3-2v--------------------------------------------|
g|--------------------------------------------------|
D|--------------------------------------------------|
A|--------------------------------------------------|
E|--------------------------------------------------|



(4:00) Outro Solo
e|--------------------------------------------------|
b|-----------------7--------------------------------|
g|2h4-2---4p2-4b-6---4b-4v(4v)-2h4-2h4p2-1h2p1----2v|
D|------4--------------------------------------4v---|
A|--------------------------------------------------|
E|--------------------------------------------------|

(4:07)       (4:08)     (4:10)
e|--------------------------------------------------|
b|--------------------------------------------------|
g|X------2---------2--------1-2---------------------|
D|X2-4-2-4---2-4-2---4--2h4-----4-------------------|
A|--------------------------------------------------|
E|--------------------------------------------------|


(4:11)
e|--------------------------------------------------|
b|--------------------------------------------------|
g|----1h2p1---2-------------------------------------|
D|2h4-------4---4-2-4-------------------------------|
A|--------------------------------------------------|
E|--------------------------------------------------|

(4:13)         (4:15)
e|--------------------------------------------------|
b|----5-5b-5-7-7v-7v-7p5---5h7-7v-------------------|
g|4-6--------------------6--------------------------|
D|--------------------------------------------------|
A|--------------------------------------------------|
E|--------------------------------------------------|

(4:18)                          (4:20)
e|----------------5-------------5b-5v-7p5-5-4-5-5h4--|
b|s5-7-5-7--7p5------7-5-7--7-5---------------------7|
g|--------------6------------------------------------|
D|---------------------------------------------------|
A|---------------------------------------------------|
E|---------------------------------------------------|

(4:26)let notes ring
e|-------12-----------------------------------------|
b|12b-12b-------------------------------------------|
g|--------------------------------------------------|
D|--------------------------------------------------|
A|--------------------------------------------------|
E|--------------------------------------------------|

(4:29)
e|---12---12---12---12---12---12---12---------------|
b|12b--12b--12b--12b--12b--12b--12b-----------------|
g|--------------------------------------------------|
D|--------------------------------------------------|
A|--------------------------------------------------|
E|--------------------------------------------------|

(4:32)                                (4:36)
e|---14---14v-14---------14---14v-14--17p14--14------|
b|17b--17b------17p15-17b--17b------14-----14--14-17b|
g|---------------------------------------------------|
D|---------------------------------------------------|
A|---------------------------------------------------|
E|---------------------------------------------------|

(4:37)
e|17-14---------------------------------------------|
b|------17-17b-17-17p14----14---14------------------|
g|----------------------16b--16b---16p14h16s18-18b--|
D|--------------------------------------------------|
A|--------------------------------------------------|
E|--------------------------------------------------|

(4:39)
e|--------------------------------------------------|
b|2v----2s------------------------------------------|
g|2v----2s------------------------------------------|
D|---4v---------------------------------------------|
A|--------------------------------------------------|
E|--------------------------------------------------|

(4:41)
e|---17--17-19p17-19b-19b-19b-22-19b-22-19--------------|
b|s19--19----------------------------------22-22p19-22bs|
g|------------------------------------------------------|
D|------------------------------------------------------|
A|------------------------------------------------------|
E|------------------------------------------------------|

(4:46/4:47)
e|--------------------------------------------------|
b|14h17p14---------------------------14-------------|
g|--------16h18p16p14h16p14-14-16-16b--16-14vs------|
D|--------------------------------------------------|
A|--------------------------------------------------|
E|--------------------------------------------------|

(4:49)         (4:51) drums come in, keep bend held up    
e|--------------------------------------------------|
b|--------------------------------------------------|
g|--2-4-4bp2--4bh-----------------------------------|
D|4---------t4--------------------------------------|
A|--------------------------------------------------|
E|--------------------------------------------------|

(4:56) pick the bend and let it down (like a pre-bend)
e|--------------------------------------------------|
b|--------------------------------------------------|
g|4br-2-4v-2v---------------------------------------|
D|--------------------------------------------------|
A|--------------------------------------------------|
E|--------------------------------------------------|

(5:02) last phrase! lots of delay, slight palm mute
e|--------------------------------------------------|
b|--------------------------------------------------|
g|--------------------------------------------------|
D|s4--2---------------------------------------------|
A|---4-4-2-2----------------------------------------|
E|--------4-4-2-2v----------------------------------|
  pm----------------|



tabbed by DaveMustaine7


They all say I've lost my mind
But I'm just tryin' to find a better way
Cause somewhere in this sea of fools
The real truth is they're scared because your brave

You'll be ok if you be yourself for no one else
They'll hate you cause you're beautiful
So blaze the trail that no one can
Cause they'll never understand
That we live in a bad girls world, bad girls' world, bad girls
We runnin a bad girls world, bad girls' world, bad girls world, bad girls

All you rebel babies
And you pretty thing with the dirty mouth
Tell 'em times are changing
And we will never back down
This is our house now

If you be yourself for no one else
They'll hate you cause you're beautiful
So blaze the trail that no one can
Cause they'll never understand
That we live in a bad girls world, bad girls' world, bad girls
We runnin' a bad girls world, bad girls' world, bad girls world, bad girls.
Добавлено: 20.05.2016
Другие материалы по этой песне:
  • Аккорды и текст

Страница создана 20.05.2016
http://primanota.ru/halestorm/bad-girls-world-chords.htm
Привет, Гость.
Предлагаем пройти революционный курс по гитаре.
Подарок от PrimaNota.Ru, забирай!