PrimaNota.ru - самый крупный в мире бесплатный архив песенных текстов, аккордов, табулатур и нот


Haggard - Per Aspera Ad Astra - таба, видео

Регистрация Запомнить меня
Войти через:  Facebook Google Twitter Vk Yandex Mail.ru

Haggard - Per Aspera Ad Astra - таба, видео

Печатать
Просмотров: 315
Авторы музыки: Asis Nasseri
Авторы текста: Asis Nasseri
Artist: Haggard
Song: Per Aspera Ad Astra
Album: Eppur Si Muove
Tuning: Standard


e|------------------------------------------------------------|
B|------------------------------------------------------------|
G|------------------------------------------------------------|
D|------------9-----7-----------------------------------------|
A|------------------------10-----9-----7-----9-----10---------|
E|--7-7-7-7-7---7-7---7-7----7-7---7-7---7-7---7-7----7-7-----|


e|--------------------------------------------------|
B|--------------------------------------------------|
G|--------------------------------------------------|
D|----------------------------------------5-4~------|
A|--------7-----9-----5-------------5---------------|
E|--5-5-5---5-5---5-5---5-5---3-3-3---3-3-----------|



e|------------------------------------------------------------|  \
B|------------------------------------------------------------|   \
G|------------------------------------------------------------|    \
D|------------9-----7-----------------------------------------|     |
A|------------------------10-----9-----7-----9-----10---------|     |
E|--7-7-7-7-7---7-7---7-7----7-7---7-7---7-7---7-7----7-7-----|     | x2
                                                                    | 
                                                                    |
e|------------------------------------------------------|           |
B|------------------------------------------------------|          /
G|------------------------------------------------------|         /
D|--------------------------------------------5-4~------|        /
A|------------7-----9-----5-------------5---------------|
E|--5-5-5-5-5---5-5---5-5---5-5---3-3-3---3-3-----------|


e|------------------------------------------------------------|  
B|------------------------------------------------------------|   
G|------------------------------------------------------------|   
D|------------9-----7-----------------------------------------|     
A|------------------------10-----9-----7-----9-----10---------|     
E|--7-7-7-7-7---7-7---7-7----7-7---7-7---7-7---7-7----7-7-----|     
                                                                    
                                                                
e|--------------------------------------------------------------|            
B|--------------------------------------------------------------|            
G|--------------------------------------------------------------|           
D|--------------------------------------------5-4-2---2-4--2----|          
A|------------7-----9-----5-------------5-----------5------2----|
E|--5-5-5-5-5---5-5---5-5---5-5---3-3-3---3-3--------------0----|



e|----------------------------------------------------------------------| x2
B|----------------------------------------------------------------------|
G|-------2---------2------------------------2---------------------------|
D|--5-5--2----5----2----0-2-3-5--3-2--------2--------5-------3----2-----|
A|--5-5--0----5----0-----------------3--2---0--------5-------3----2-----|
E|--3-3-------3---------------------------3----------3-------1----0-----|


e|------------------------------------------------------------| 
B|------------------------------------------------------------|
G|-------2---------2--------------------2----------------2----|
D|--5-5--2----5----2----0-2-3-5-0-------2--------5-------2----|
A|--5-5--0----5----0--------------------0--------5-------0----|
E|--3-3-------3----------------------------------3------------|


e|-------------------------------------------------------------------------------------| 
B|-------------------------------------------------------------------------------------|
G|--------------------5--4-------------------------------------------------------------|
D|--3--------5--------5--4---2--2-2-2--2-2-2-2-2-2-2-----2--2-2-2--2-2-2-2-2-2-2-------|
A|--3--------5--------3--2---0--0-0-0--0-0-0-0-0-0-0--2--0--0-0-0--0-0-0-0-0-0-0--2----|
E|--1--------3----------------------------------------0---------------------------0----|


e|------------------|
B|------------------|
G|------------------|
D|--3--------5------|
A|--3--------5------|
E|--1--------3------|


e|------------------------------------------------------------|
B|------------------------------------------------------------|
G|------------------------------------------------------------|
D|------------9-----7-----------------------------------------|
A|------------------------10-----9-----7-----9-----10---------|
E|--7-7-7-7-7---7-7---7-7----7-7---7-7---7-7---7-7----7-7-----|


e|--------------------------------------------------|
B|--------------------------------------------------|
G|--------------------------------------------------|
D|----------------------------------------5-4~------|
A|--------7-----9-----5-------------5---------------|
E|--5-5-5---5-5---5-5---5-5---3-3-3---3-3-----------|


e|------------------------------------------------------------|  \
B|------------------------------------------------------------|   \
G|------------------------------------------------------------|    \
D|------------9-----7-----------------------------------------|     |
A|------------------------10-----9-----7-----9-----10---------|     |
E|--7-7-7-7-7---7-7---7-7----7-7---7-7---7-7---7-7----7-7-----|     | x2
                                                                    | 
                                                                    |
e|------------------------------------------------------|           |
B|------------------------------------------------------|          /
G|------------------------------------------------------|         /
D|--------------------------------------------5-4~------|        /
A|------------7-----9-----5-------------5---------------|
E|--5-5-5-5-5---5-5---5-5---5-5---3-3-3---3-3-----------|


e|-------------------------------------------------------------------------------------| 
B|-------------------------------------------------------------------------------------|
G|--------------------5--4-------------------------------------------------------------|
D|--3--------5--------5--4---2--2-2-2--2-2-2-2-2-2-2-----2--2-2-2--2-2-2-2-2-2-2-------|
A|--3--------5--------3--2---0--0-0-0--0-0-0-0-0-0-0--2--0--0-0-0--0-0-0-0-0-0-0--2----|
E|--1--------3------0---------------------------------0---------------------------0----|


e|-------------------------------------------------------------------------------------| 
B|-------------------------------------------------------------------------------------|
G|--------------------5--4-------------------------------------------------------------|
D|--3--------5--------5--4---2--2-2-2--2-2-2-2-2-2-2-----2--2-2-2--2-2-2-2-2-2-2-------|
A|--3--------5--------3--2---0--0-0-0--0-0-0-0-0-0-0--2--0--0-0-0--0-0-0-0-0-0-0--2----|
E|--1--------3----------------------------------------0---------------------------0----|


e|------------------|
B|------------------|
G|------------------|
D|--3--------5------|
A|--3--------5------|
E|--1--------3------|


e|----------------------------------------------------------------| x2
B|----------------------------------------------------------------|
G|--2-----------------2----------------5------------------2-------|
D|--2--------5--------2-------5--------5--------5----2----2-------|
A|--0--------5--------0-------5--------3--------5----2----0-------|
E|-----------3----------------3-----------------3----0------------|


e|--------------------------------------------------------| 
B|--------------------------------------------------------|
G|--2-----------------2----------------5------------------|
D|--2--------5--------2-------5--------5--------5----2----|
A|--0--------5--------0-------5--------3--------5----2----|
E|-----------3----------------3-----------------3----0----|


e|------------------------------------------------------------|
B|------------------------------------------------------------|
G|------------------------------------------------------------|
D|------------9-----7-----------------------------------------|
A|------------------------10-----9-----7-----9-----10---------|
E|--7-7-7-7-7---7-7---7-7----7-7---7-7---7-7---7-7----7-7-----|


e|--------------------------------------------------|
B|--------------------------------------------------|
G|--------------------------------------------------|
D|----------------------------------------5-4~------|
A|--------7-----9-----5-------------5---------------|
E|--5-5-5---5-5---5-5---5-5---3-3-3---3-3-----------|


e|------------------------------------------------------------|  \
B|------------------------------------------------------------|   \
G|------------------------------------------------------------|    \
D|------------9-----7-----------------------------------------|     |
A|------------------------10-----9-----7-----9-----10---------|     |
E|--7-7-7-7-7---7-7---7-7----7-7---7-7---7-7---7-7----7-7-----|     | x2
                                                                    | 
                                                                    |
e|------------------------------------------------------|           |
B|------------------------------------------------------|          /
G|------------------------------------------------------|         /
D|--------------------------------------------5-4~------|        /
A|------------7-----9-----5-------------5---------------|
E|--5-5-5-5-5---5-5---5-5---5-5---3-3-3---3-3-----------|


e|------------------------------------------------------------|  
B|------------------------------------------------------------|   
G|------------------------------------------------------------|   
D|------------9-----7-----------------------------------------|     
A|------------------------10-----9-----7-----9-----10---------|     
E|--7-7-7-7-7---7-7---7-7----7-7---7-7---7-7---7-7----7-7-----|
     

e|----------------------------------------------------------------------| x2
B|----------------------------------------------------------------------|
G|-------2---------2------------------------2---------------------------|
D|--5-5--2----5----2----0-2-3-5--3-2--------2--------5-------3----2-----|
A|--5-5--0----5----0-----------------3--2---0--------5-------3----2-----|
E|--3-3-------3---------------------------3----------3-------1----0-----|


e|------------------------------------------------------------| 
B|------------------------------------------------------------|
G|-------2---------2--------------------2----------------2----|
D|--5-5--2----5----2----0-2-3-5-0-------2--------5-------2----|
A|--5-5--0----5----0--------------------0--------5-------0----|
E|--3-3-------3----------------------------------3------------|


e|-------------------------------------------------------------------------------------| 
B|-------------------------------------------------------------------------------------|x2
G|--------------------5--4-------------------------------------------------------------|
D|--3--------5--------5--4---2--2-2-2--2-2-2-2-2-2-2-----2--2-2-2--2-2-2-2-2-2-2-------|
A|--3--------5--------3--2---0--0-0-0--0-0-0-0-0-0-0--2--0--0-0-0--0-0-0-0-0-0-0--2----|
E|--1--------3----------------------------------------0---------------------------0----|
                                                                    

e|-------------------------|
B|-------------------------|
G|---------------------2---|
D|--3--------5---------2---|
A|--3--------5---------0---|
E|--1--------3-------------|
                                                                  
Добавлено: 17.04.2012
Другие материалы по этой песне:

Страница создана 17.04.2012
http://primanota.ru/haggard/per-aspera-ad-astra-chords.htm
Привет, Гость.
Предлагаем пройти революционный курс по гитаре.
Подарок от PrimaNota.Ru, забирай!