PrimaNota.ru - самый крупный в мире бесплатный архив песенных текстов, аккордов, табулатур и нот


Guthrie Govan - Fives - бас-таба, видео

Регистрация Запомнить меня
Войти через:  Facebook Google Twitter Vk Yandex Mail.ru

Guthrie Govan - Fives - бас-таба, видео

Печатать
Просмотров: 319
-----------------------------------------------------------------------------
                             FIVES – GUTHRIE GOVAN
-----------------------------------------------------------------------------

Tabbed By: Gabe S.
E-mail: Gabesps3@aol.com

The intro is just the same thing as the guitar. Its a work in progress so would be great 
if someone could finish the tab. Also I am aware that it is played on a six string bass

Tuning: E A D G

G|------------12----7------------9--------------12----7------------9--------|
D|--------10-----------5------------7--------10----------5-------------7----|
A|-----0------------------7/8-------------0-----------------7/8-------------|
E|--------------------------------------------------------------------------|    Repeat 
This 2X

G|--8-------------10--------------12--------8-----------10-------------12---|
D|-----6--------------8---------------10-------6------------8-------------10|
A|--------6---------------10/11-------------------8-------------10/11-------|
E|--------------------------------------------------------------------------|

G|---------------15------------12---------|
D|--13---------------13------------10-----|   Repeat 2X
A|------11---------------11------------8--|
E|----------9-----------------------------|

G|------------12----7------------9--------------12----7------------9--------|
D|--------10-----------5------------7--------10----------5-------------7----|
A|-----0------------------7/8-------------0-----------------7/8-------------|
E|--------------------------------------------------------------------------|    Repeat 
This 2X
Добавлено: 27.06.2012
Другие материалы по этой песне:

Страница создана 03.03.2012
http://primanota.ru/guthrie-govan/fives-chords.htm
Привет, Гость.
Предлагаем пройти революционный курс по гитаре.
Подарок от PrimaNota.Ru, забирай!