PrimaNota.ru - самый крупный в мире бесплатный архив песенных текстов, аккордов, табулатур и нот


Guns N Roses - Tokyo Use Your Illusion Solos - таба, видео

Регистрация Запомнить меня
Войти через:  Facebook Google Twitter Vk Yandex Mail.ru

Guns N Roses - Tokyo Use Your Illusion Solos - таба, видео

Печатать
Просмотров: 92
Song : Knocking on heaven's door
Artist : Guns and Roses
Album : Tokyo Use your illusion II
Tabbed by : Frederic Briere
Ilie_cobra@hotmail.com


h   - hammer on
p   - pull off
b   - bend string up
bb  - 1 1/2 tone bend
H   - hold bend
r   - release bend
/   - slides
~   - vibrato
x   - play 'note' with heavy damping
(*) - harmonics


Here are three extended solos Slash played in the 1992
Use Your Illusion Tour in Tokyo (Rocket Queen, Move to the
city, Knocking on Heaven's door). This is from the videotape
Use Your Illusion II, these solos are simply amazing. I
finally decided to tab them and share them. Hope you enjoy !
(If the guy is actually improvising, he is an absolute genius)




Solo 1 :


E----------------------------------------------------------
B--------------3h5-3h5-3h5-3-------------------------------
G------5brb-------------------5-4-5~-----------------------
D----------------------------------------------------------
A----------------------------------------------------------
E----------------------------------------------------------


E----------------------------------------------------------
B----------------------------------------------------------
G----------------------------------------------------------
D-----5--7b-----5h7-5-------5------------------------------
A----------------------5h7-----5h7--5----------2-3-2~------
E----------------------------------------------------------


E----------------------------------------------------------
B----------------------------------------------------------
G-------------------2-4-5-5/7--5-4-5-5/7-5-4-5-5/7---------
D------------2-4-5-----------------------------------------
A-----2-3-5------------------------------------------------
E----------------------------------------------------------


E----------------------------------------------------------
B-----------------------------------8-7-8-7-8-8/10---------
G------5-4-5/7-5-4----/11-9-9~-----------------------------
D----------------------------------------------------------
A----------------------------------------------------------
E----------------------------------------------------------


E---------------------------------10----------------10-----
B-------8h10p8/7-8-8~---------10b----10r-8-10-8-10b----10r-
G------------------------9-7-------------------------------
D----------------------------------------------------------
A----------------------------------------------------------
E----------------------------------------------------------


E--------10-8/7-8p7----------------------------------------
B-----8-------------8--------------------------------------
G---------------------7~-----------------------------------
D----------------------------------------------------------
A----------------------------------------------------------
E----------------------------------------------------------



Solo 2 :


E----------------10----------------------------------------
B-------10-12-13-----13b-----13-12-13b-13-12---------------
G----12---------------------------------------12~----------
D----------------------------------------------------------
A----------------------------------------------------------
E----------------------------------------------------------


E----------------------------------------------------------
B-----------------------15---------------------------------
G------------12-----14b----14r~----------------------------
D------12h14----14-----------------------------------------
A----------------------------------------------------------
E----------------------------------------------------------


E----------------------------------------------------------
B----------------------------------------------------------
G-----------12----12h14p12----14----12~--------------------
D-----12h14----14----------14---(14)-----------------------
A----------------------------------------------------------
E----------------------------------------------------------


E-------------------------15-------------------------------
B------------13~----12-13----13-12-13-12h13p12----12-13----
G-----14-12------------------------------------14----------
D----------------------------------------------------------
A----------------------------------------------------------
E----------------------------------------------------------


E----------------------------------------------------------
B---15-13-----13-12h13p12----12-----12---------------------
G-------------------------14----14b----14brp12----14~------
D----------------------------------------------14----------
A----------------------------------------------------------
E----------------------------------------------------------


E-------------------------------------15---------15--------
B-----------15-----------13~------15b----15rp13-----15br~--
G----12-14b----14r-12-14----14-12--------------------------
D----------------------------------------------------------
A----------------------------------------------------------
E----------------------------------------------------------


E----------------------------------------------------------
B-----13-15------------------------------------------------
G-----------14b-14-12-14----12-----------------------------
D------------------------14----12-14-----------------------
A------------------------------------12-14-12br/10-12-10---
E----------------------------------------------------------


E----------------------------------------------------------
B-----------------------------15-----15br-13h15p13/12-13---
G--------------------12-14/16----16------------------------
D--------------12-14---------------------------------------
A-----10-12/14---------------------------------------------
E--12------------------------------------------------------


E----------------------------------------------------------
B-----15br~--13p12-13p12-13p12-13p12-10-10~----------------
G-------------------------------------------10-12-10-12----
D----------------------------------------------------------
A----------------------------------------------------------
E----------------------------------------------------------


E----------------------------------------------------------
B----------------------------------------------------------
G-----10---------------------------------------------------
D--------12-10-9-10-9br-------------9-10-12-12~------------
A------------------------10~-----10------------------------
E----------------------------------------------------------

E-----------------------------8-------10-------12~---------
B----------------------------------------------------------
G------------------------/8------/10------/12--------------
D-----10h12p10/9-10~---------------------------------------
A----------------------------------------------------------
E----------------------------------------------------------

E-----10-12-10-------10---------------------10-----10------
B---------------10b-----10r-8-10---8-10brp8----10b----10r--
G--------------------------------8-------------------------
D----------------------------------------------------------
A----------------------------------------------------------
E----------------------------------------------------------

E----------------------------------------------------------
B----8---8h10-8---8~------10-8-7~---8-7-8-7-5-7-5----------
G------9--------9------------------------------------------
D----------------------------------------------------------
A----------------------------------------------------------
E----------------------------------------------------------

E---------------------------3-----3-----3-----3-----3------
B------5-3-5-3-----3---------------------------------------
G--------------5-4---5-4h5----4h5---4h5---4h5---4h5---4h5--
D----------------------------------------------------------
A----------------------------------------------------------
E----------------------------------------------------------

E---------3-----3-----3-----3-----3-----3-----3-----3------
B----------------------------------------------------------
G-----4h5---4h5---4h5---4h5---4h5---4h5---4h5---4h5---4h5--
D----------------------------------------------------------
A----------------------------------------------------------
E----------------------------------------------------------


E---------3-----3-----3-----3-----3------------------------
B-----------3h5---------3h5---------3h5--------------------
G-----4h5---------4h5---------4h5--------------------------
D----------------------------------------------------------
A----------------------------------------------------------
E----------------------------------------------------------

E---------3-----3-----3-----3-----3------------------------
B-----------3h5---------3h5---------3h5--------------------
G-----4h5---------4h5---------4h5--------------------------
D----------------------------------------------------------
A----------------------------------------------------------
E----------------------------------------------------------



E----------3-----------------------------------------------
B------------3-3-5-3----5brp3------------------------------
G------4h5--------------------5-4---2brp0------0-----------
D------------------------------------------0h2---0h2-0-----
A----------------------------------------------------------
E----------------------------------------------------------

E----------------------------------------------------------
B----------------------------------------------------------
G----------------------------------------------------------
D-------------4/5~-------------5-4~------5-4-5/7-5-7/10----
A---------2-5--------------2-5-----------------------------
E-----2-3----------------3---------------------------------

E---------8-------10--------------7h10p7----7h10p7---------
B-------8---8-10b----10r-8-10b-----------10--------10------
G-----9----------------------------------------------------
D----------------------------------------------------------
A----------------------------------------------------------
E----------------------------------------------------------

E----7h10p7----7h10p7------7h10p7--------------------------
B-----------10--------10----------10-----------------------
G----------------------------------------------------------
D----------------------------------------------------------
A----------------------------------------------------------
E----------------------------------------------------------

E----7h10p7----7h10p7------7h10p7--------------------------
B-----------10--------10----------10-----------------------
G----------------------------------------------------------
D----------------------------------------------------------
A----------------------------------------------------------
E----------------------------------------------------------

E----7h10p7----7h10p7-----7---------(10)-------------------
B-----------10--------10----10b~~~~~~~~--------------------
G----------------------------------------------------------
D----------------------------------------------------------
A----------------------------------------------------------
E----------------------------------------------------------



E-----------10---------------------------------------------
B-------10b----10r-8---10-8---8~----10-8-------------------
G--------------------9------9------------------------------
D----------------------------------------------------------
A----------------------------------------------------------
E----------------------------------------------------------


E--------10-10-10------------------13----------------------
B-----------------13br11-13-11-13b----13-13-11~------------
G----------------------------------------------------------
D----------------------------------------------------------
A----------------------------------------------------------
E----------------------------------------------------------


E------13b----------13b---12b----12brp10-12p10----10-------
B----------------------------------------------13----13b---
G----------------------------------------------------------
D----------------------------------------------------------
A----------------------------------------------------------
E----------------------------------------------------------


E--------10-10---------------------------------------------
B--------------13b-13brp11----13--11-----------------------
G--------------------------12------------------------------
D--------------------------------------12p10/8b~-----------
A----------------------------------------------------------
E----------------------------------------------------------


E----------------------------------------------------------
B------------------------------------8-10p8---11p8---------
G--------------------------------7-9--------9------9-------
D--------------8----10br-10-8-10---------------------------
A------10-8-10---10----------------------------------------
E----------------------------------------------------------


E----------------------------------------------------------
B----10p8---11p8---11p8---11p8---10p8-----11p8-------------
G---------9------9------9------9------9--------9-----------
D----------------------------------------------------------
A----------------------------------------------------------
E----------------------------------------------------------

E----------------------------------------------------------
B----10p8---11p8---10p8---11p8---10p8----------------------
G---------9------9------9------9------9--------------------
D----------------------------------------------------------
A----------------------------------------------------------
E----------------------------------------------------------

E----------------------------------------------------------
B----10p8---11p8---10p8---11p8---10p8----------------------
G---------9------9------9------9------9--------------------
D----------------------------------------------------------
A----------------------------------------------------------
E----------------------------------------------------------



E----------------------------------------------------------
B-------15bb---15bb--15-14-13--11-13-13brp11-13-11h13------
G----------------------------------------------------------
D----------------------------------------------------------
A----------------------------------------------------------
E----------------------------------------------------------


E----------------------------------------------------------
B----------------------------------------------------------
G-------7----7------------------------10-------------------
D----(10)-10---10brp8-10~-----8-10/12----12-11-10-8-10-8---
A----------------------------------------------------------
E----------------------------------------------------------


E----------------------------------------------------------
B----------------------------------------------------------
G---------------------------------------------------10~----
D---------8------------------8----8b~-------8-10/12--------
A----10-8---10-8----8h10-10~---10--------10----------------
E----------------10----------------------------------------


E----------------------------------------------------------
B------------------------11-11~-----------------11~--------
G-------10---------10-12--------------12p10----------------
D----12---------12--------------------------12-------------
A----------------------------------------------------------
E----------------------------------------------------------

E----------------------------------------------------------
B--------------11~----------------11~----------------------
G----12p10---------------12p10-----------------------------
D----------12------------------12--------------------------
A----------------------------------------------------------
E----------------------------------------------------------

E----------------------------------------------------------
B--------------11~----------------11~----------------------
G----12p10---------------12p10-----------------------------
D----------12------------------12--------------------------
A----------------------------------------------------------
E----------------------------------------------------------



E----------------------------------------------------------
B---------------11br----------------11br-11----------------
G-----12p10---------------12p10-------------12-10----------
D-----------12------------------12-------------------------
A----------------------------------------------------------
E----------------------------------------------------------


E----------------------------------------------------------
B--------11b-11--------------11b-11-----------11b----------
G---------------12-10---------------12-10------------------
D----------------------------------------------------------
A----------------------------------------------------------
E----------------------------------------------------------


E-----------13-----13-----13-----13-----13-----13----------
B-------13b----13b----13b----13b----13b----13b-------------
G----------------------------------------------------------
D----------------------------------------------------------
A----------------------------------------------------------
E----------------------------------------------------------

E-----------13-----13-----13-----13-----13-----------------
B-------13b----13b----13b----13b----13b----13brp11-13-11---
G----------------------------------------------------------
D----------------------------------------------------------
A----------------------------------------------------------
E----------------------------------------------------------


E----------------------------------------------------------
B----------------------------------------------------------
G-----12~-------11~------9~--------------------------------
D------------------------------12~-----10/9----------------
A----------------------------------------------10~---------
E----------------------------------------------------------

E----------------------------------------------------------
B----------------------------------------------------------
G----------------------------------------------------------
D----------------------------------------------------------
A-----9~-----7~-------5~--------3/2------------------------
E-----------------------------------------3~---------------


That's it.



------=_NextPart_000_7456_61e7_75d5
Content-Type: text/plain; name="move to the city.txt"; format=flowed
Content-Transfer-Encoding: 8bit
Content-Disposition: attachment; filename="move to the city.txt"

Song : Move to the city
Artist : Guns and Roses
Album : Live in Tokyo Use your Illusion II
Tabbed by : Frederic Briere
Ilie_cobra@hotmail.com



h   - hammer on
p   - pull off
b   - bend string up
bb  - 1 1/2 tone bend
H   - hold bend
r   - release bend
/   - slides
~   - vibrato
x   - play 'note' with heavy damping
(*) - harmonics


Here are three extended solos Slash played in the 1992
Use Your Illusion Tour in Tokyo (Rocket Queen, Move to
the city, Knocking on Heaven's door). This is from the
videotape Use Your Illusion II, these solos are simply
amazing. I finally decided to tab them and share them.
Hope you enjoy ! (If the guy is actually improvising, he
is an absolute genius)






Intro


E-----12-12-------------------12-12----------------12-12---
B-----12-12---14-12-14-12-14--12-12-14-12-14-12-14-12-12---
G-------------14-12-14-12-14--------14-12-14-12-14---------
D----------------------------------------------------------
A----------------------------------------------------------
E----------------------------------------------------------


E----------------------------------------------------------
B---14-12-14-12-14-12~-------------------------------------
G---14-12-14-12-14-12~-------------------------------------
D----------------------------------------------------------
A----------------------------------------------------------
E----------------------------------------------------------




E-----12-12-------------------12-12----------------12-12---
B-----12-12---14-12-14-12-14--12-12-14-12-14-12-14-12-12---
G-------------14-12-14-12-14--------14-12-14-12-14---------
D----------------------------------------------------------
A----------------------------------------------------------
E----------------------------------------------------------


E----------------------------------------------------------
B---14-12-14-12-14------14b-14b-14b------------------------
G---14-12-14-12-14------14b-14b-14bp12---------------------
D--------------------------------------14------------------
A----------------------------------------------------------
E----------------------------------------------------------





E-----12-12-------------------12-12----------------12-12---
B-----12-12---14-12-14-12-14--12-12-14-12-14-12-14-12-12---
G-------------14-12-14-12-14--------14-12-14-12-14---------
D----------------------------------------------------------
A----------------------------------------------------------
E----------------------------------------------------------


E----------------------------------------------------------
B---14-12-14-12-14----14brp12-14-12-14brp12----------------
G---14-12-14-12-14----14brp12-14-12-14brp12----------------
D-------------------------------------------14-------------
A----------------------------------------------------------
E----------------------------------------------------------






E-----12-12-------------------12-12----------------12-12---
B-----12-12---14-12-14-12-14--12-12-14-12-14-12-14-12-12---
G-------------14-12-14-12-14--------14-12-14-12-14---------
D----------------------------------------------------------
A----------------------------------------------------------
E----------------------------------------------------------


E----------------------------------------------------------
B---14-12-14-12-14-----------------------------------------
G---14-12-14-12-14-----------------------------------------
D----------------------------------------------------------
A----------------------------------------------------------
E----------------------------------------------------------


Then


E----------------------------------------------------------
B----------------------------------------------------------
G----------------------------------------------------------
D-----7-7-7-7-7-7-7-8-9-------9--------9--------9----------
A-----5-5-5-5-5-5-5-6-7-------7--------7--------7----------
E----------------------------------------------------------

E----------------------------------------------------------
B----------------------------------------------------------
G----------------------------------------------------------
D----9-------9----------9----7---6----4----7---8----9------
A----7-------7----------7----5---4----2----5---6----7------
E----------------------------------------------------------

E----------------------------------------------------------
B----------------------------------------------------------
G----------------------------------------------------------
D----------------------------------------------------------
A------9---9--7-----7---9----9~----9--7------7---9~--------
E----------------9-----------------------9-----------------

E----------------------------------------------------------
B----------------------------------------------------------
G----------------------------------------------------------
D-----7----6----4-----7----8------9------------------------
A-----5----4----2-----5----6------7------------------------
E----------------------------------------------------------


Verse (all E)


E----------------------------------------------------------
B----------------------------------------------------------
G----------------------------------------------------------
D-----9----------------------------------------------------
A-----7----------------------------------------------------
E----------------------------------------------------------

You pack your bags
And you move to the city
There's somethin' missin' here at home
You fix your hair
And you're lookin' real pretty
It's time to get it out on your own


Chorus



You're always fightin'                  your family life...
With your mama and you papa


E----------------------------------------------------------
B----------------------------------------------------------
G----------------------------------------------------------
D------9---7---7---7---7---7-------9---7-----7-------------
A------7---5---5---5---5---5-------7---5-----5-------------
E----------------------------------------------------------


     Is one big pain! When you, you gonna move to the city?

E----------------------------------------------------------
B----------------------------------------------------------
G----------------------------------------------------------
D----4---6---7---7--9-----9------9---------9-------9-------
A----2---4---5---5--7-----7------7---------7-------7-------
E----------------------------------------------------------



     To the city where it all began      You gotta move


E----------------------------------------------------------
B----------------------------------------------------------
G----------------------------------------------------------
D----9-------9--------9--------9--------9------------------
A----7-------7--------7--------7--------7------------------
E----------------------------------------------------------


                                 Ma,ma,ma,ma,ma,ma,ma,ma,ma
                                 Time you gotta move

E----------------------------------------------------------
B----------------------------------------------------------
G----------------------------------------------------------
D-----7---6----4-----2----9------9------9------------------
A-----5---4----2-----0----7------7------7------------------
E----------------------------------------------------------

E----------------------------------------------------------
B----------------------------------------------------------
G----------------------------------------------------------
D-----7---6----4-----2----9------9------9------------------
A-----5---4----2-----0----7------7------7------------------
E----------------------------------------------------------



Then repeat all that


E----------------------------------------------------------
B----------------------------------------------------------
G----------------------------------------------------------
D----9-------9----------9----7---6----4----7---8----9------
A----7-------7----------7----5---4----2----5---6----7------
E----------------------------------------------------------

E----------------------------------------------------------
B----------------------------------------------------------
G----------------------------------------------------------
D----------------------------------------------------------
A------9---9--7-----7---9----9-----9--7------7---9---------
E----------------9-----------------------9-----------------

E----------------------------------------------------------
B----------------------------------------------------------
G----------------------------------------------------------
D-----7----6----4-----7----8------9------------------------
A-----5----4----2-----5----6------7------------------------
E----------------------------------------------------------


Verse (all E)


E----------------------------------------------------------
B----------------------------------------------------------
G----------------------------------------------------------
D-----9----------------------------------------------------
A-----7----------------------------------------------------
E----------------------------------------------------------

You stole your mama's car
And your daddy's plastic credit card
You're sixteen and you can't get a job
You're not goin' very far




Chorus



You're always ridin'                  This life is...
With the teachers and the police


E----------------------------------------------------------
B----------------------------------------------------------
G----------------------------------------------------------
D------9---7---7---7---7---7-------9---7-----7-------------
A------7---5---5---5---5---5-------7---5-----5-------------
E----------------------------------------------------------


Much too insane!     When you, you gonna move to the city?

E----------------------------------------------------------
B----------------------------------------------------------
G----------------------------------------------------------
D----4---6---7----7-9-----9------9---------9-------9-------
A----2---4---5----5-7-----7------7---------7-------7-------
E----------------------------------------------------------



    To the city where it all began      You gotta move


E----------------------------------------------------------
B----------------------------------------------------------
G----------------------------------------------------------
D----9-------9--------9--------9--------9------------------
A----7-------7--------7--------7--------7------------------
E----------------------------------------------------------


                                 Ma,ma,ma,ma,ma,ma,ma,ma,ma
                                 Time you gotta move

E----------------------------------------------------------
B----------------------------------------------------------
G----------------------------------------------------------
D-----7---6----4-----2----9------9------9------------------
A-----5---4----2-----0----7------7------7------------------
E----------------------------------------------------------

E----------------------------------------------------------
B----------------------------------------------------------
G----------------------------------------------------------
D-----7---6----4-----2----9------9------9------------------
A-----5---4----2-----0----7------7------7------------------
E----------------------------------------------------------





Then

Repeat that

E----------------------------------------------------------
B----------------------------------------------------------
G----------------------------------------------------------
D------7-7-7-7-8-9----9------------------------------------
A------5-5-5-5-6-7----7------------------------------------
E----------------------------------------------------------






Slash does


E----------------------------------------------------------
B------15b--------15~-------15-------------12~-------------
G---------------------------14b-----14~----13~-------------
D----------------------------------------------------------
A----------------------------------------------------------
E----------------------------------------------------------


E----------------------------------------------------------
B----10~------12~------10~---------------------------------
G----11~------13~------11~---------------------------------
D----------------------------------------------------------
A----------------------------------------------------------
E----------------------------------------------------------





Solo 1 :



E----------14----------14----------14----------14----------
B-----17b------14h17b------14h17b------14h17b--------------
G----------------------------------------------------------
D----------------------------------------------------------
A----------------------------------------------------------
E----------------------------------------------------------

E----------14----------14----------14----------14---15bb---
B--14h17b------14h17b------14h17b------14h17b--------------
G----------------------------------------------------------
D----------------------------------------------------------
A----------------------------------------------------------
E----------------------------------------------------------



E----------------------------------------------------------
B----------------14h17p14--------14h17p14------14h17p14----
G--------------------------16--------------16--------------
D----------------------------------------------------------
A----------------------------------------------------------
E----------------------------------------------------------


E----------------------------------------------------------
B----------------14h17p14--------14h17p14------14h17p14----
G--------------------------16--------------16--------------
D----------------------------------------------------------
A----------------------------------------------------------
E----------------------------------------------------------

E----------------------------------------------------------
B----------------14h17p14--------14h17p14-------14h17p14---
G--------------------------16--------------16--------------
D----------------------------------------------------------
A----------------------------------------------------------
E----------------------------------------------------------

E----------------------------------------------------------
B------------14--------------------------------------------
G-----17p16------17---16h17p16p14------16------14h15-------
D----------------------------------16------16--------16----
A----------------------------------------------------------
E----------------------------------------------------------


E------------14---17b--17~----14-------------14------------
B---------------------------------14--17b--------17p14-----
G----14h15-------------------------------------------------
D----------------------------------------------------------
A----------------------------------------------------------
E----------------------------------------------------------


E------16br-------14br---12---14~--------14br---12--12~----
B----------------------------------------------------------
G----------------------------------------------------------
D----------------------------------------------------------
A----------------------------------------------------------
E----------------------------------------------------------


E----------------------------------------------------------
B-----15b-----15br~----------------------------------------
G----------------------------------------------------------
D----------------------------------------------------------
A----------------------------------------------------------
E----------------------------------------------------------







Repeat chorus and that riff 4 times




E----------------------------------------------------------
B----------------------------------------------------------
G----------------------------------------------------------
D------7-7-7-7-8-9----9------------------------------------
A------5-5-5-5-6-7----7------------------------------------
E----------------------------------------------------------


End on this


E----------------------------------------------------------
B----------------------------------------------------------
G----------------------------------------------------------
D-----7---------------7-7-7-7-8-9--------------------------
A-----5---------------5-5-5-5-6-7--------------------------
E----------------------------------------------------------








E----------------------------------------------------------
B----------------------------------------------------------
G----------------------------------------------------------
D---------------5b-------5-7b-7b-7b-7b-7b-7b-7b-5-7b-7b-5--
A-----7-5-7-5-7----7-5-7-----------------------------------
E----------------------------------------------------------

E----------------------------------------------------------
B----------------------------------------------------------
G----------------------------------------------------------
D----7-7br-5-----------------------------------------------
A-------------7-----5--------------------------------------
E----------------7-----7--5--5brp3-5-3-5b-5b-3b-0----------










Here is Slash's solo :


E----------------------------------------------------------
B----15b---15brp12------15~-----------15-12----15-12h15p12-
G-------------------14----------------------15-------------
D----------------------------------------------------------
A----------------------------------------------------------
E----------------------------------------------------------


E----------------------------------------------------------
B--------12-------12-----12-----12-----12-----12-----12----
G----15-------14b----14b----14b----14b----14b----14b-------
D----------------------------------------------------------
A----------------------------------------------------------
E----------------------------------------------------------

E----------------------------------------------------------
B---------12-----12----------------------------------------
G-----14b----14b-----14brp12-14-12-14b-12~-----------------
D----------------------------------------------------------
A----------------------------------------------------------
E----------------------------------------------------------


E----------------------------------------------------------
B----------------------------------------------12-14br-----
G----14brp12-14--12-14-14b--12~-----14-12-14b--------------
D----------------------------------------------------------
A----------------------------------------------------------
E----------------------------------------------------------


E----------------------------------------------------------
B---------12-----------------------------------------------
G-----14-----12--------------------------------------------
D----------------14-12-14-14~----12------12----------------
A------------------------------------14-----14/12-12brp10--
E----------------------------------------------------------

E----------------------------------------------------------
B----------------------------------------------------------
G-----------------------------------------------12-12------
D------------------------------12~----14p12----------------
A---------10~----12-10--12/14---------------14-------------
E----12(p10)-----------------------------------------------




E---------------------15--17brp15-17--15-17b-17b-17b-17b---
B-----------15~-17-17--------------------------------------
G----14/16-------------------------------------------------
D----------------------------------------------------------
A----------------------------------------------------------
E----------------------------------------------------------


E-----17b-17b-17bp15-17-15-17brp15-17-17-15~---------------
B----------------------------------------------------------
G----------------------------------------------------------
D----------------------------------------------------------
A----------------------------------------------------------
E----------------------------------------------------------


E-------17--19b-19-18-17-15------------------15------------
B-----------------------------17------15-17------15h17p15--
G---------------------------------16-----------------------
D----------------------------------------------------------
A----------------------------------------------------------
E----------------------------------------------------------

E----------------------------------------------------------
B---------17------15-17bbrp15-----17~---17bb-----17~-------
G-----16------16--------------16-------------16------------
D----------------------------------------------------------
A----------------------------------------------------------
E----------------------------------------------------------

E----------------------------------------------------------
B-----15-17-17p15/14---15p14/12---14p12/10---12p10/8-------
G----------------------------------------------------------
D----------------------------------------------------------
A----------------------------------------------------------
E----------------------------------------------------------


E----------------------------------------------------------
B-----10-8-------------------------------------------------
G----------------------------------------------------------
D---------------9---12-12p9/7---9p7/5------7-5-7b-5~-7-----
A----------------------------------------------------------
E----------------------------------------------------------


E----------------------------------------------------------
B------------------------------------------------8-8-8~----
G--------------------------------5-7/9-7-9p7---------------
D-----7b-7b-7b-5~-7-7b-7b-7b-7b---------------9------------
A----------------------------------------------------------
E----------------------------------------------------------


E----------------------------------------------------------
B-----8-8-8~---8-------------8-8~---8----------------------
G-----------------9p7---7-9------------9p7-----------------
D---------------------9--------------------9---------------
A----------------------------------------------------------
E----------------------------------------------------------


E------------7-----7--------7----7-----7---7----7---7------
B------9h10-----8-----9h10----8----10b---8--10b---8---10b--
G----------------------------------------------------------
D----------------------------------------------------------
A----------------------------------------------------------
E----------------------------------------------------------


E-----7----7-----7-----7-------7---------------------------
B-------8----10b----8-----10b-----12b--12-11-10-----12-----
G------------------------------------------------12----12--
D----------------------------------------------------------
A----------------------------------------------------------
E----------------------------------------------------------

E----------------------------------------------------------
B-----10h12p10----10--------10-----------------------------
G--------------12-----12p11-----12--11h12p11p9-----11-9----
D-----------------------------------------------11---------
A----------------------------------------------------------
E----------------------------------------------------------

E----------------------------------------------------------
B----------------------------------------------------------
G----------------------------------------------------------
D----12-11h12p11p9----9----9h11p9--------9-----------------
A------------------11---11---------12p11---12-11h12p11p9---
E----------------------------------------------------------


E----------------------------------------------------------
B----------------------------------------------------------
G--------------------------------------------9h11p9--------
D-------------------------9h11p9----9h11h12--------12------
A--------11------9h11h12--------12-------------------------
E----12------12--------------------------------------------


E------------------------------------------12h15-----------
B-------------10h12p10---10h12h13-----15b---------15b------
G----9h11h12----------12-----------------------------------
D----------------------------------------------------------
A----------------------------------------------------------
E----------------------------------------------------------

E----12h15-----12h15-----12h15------12h15-----12h15--------
B----------15b-------15b-------15b--------15b--------15b---
G----------------------------------------------------------
D----------------------------------------------------------
A----------------------------------------------------------
E----------------------------------------------------------

E----12h15-----12h15-----12h15------12h15-----12h15--------
B----------15b-------15b-------15b--------15b--------15b---
G----------------------------------------------------------
D----------------------------------------------------------
A----------------------------------------------------------
E----------------------------------------------------------


E------12---------15~----------12---------15~--------------
B----------15p12-------------------15p12-------------------
G----------------------------------------------------------
D----------------------------------------------------------
A----------------------------------------------------------
E----------------------------------------------------------

E------12---------15~----------12---------15~--------------
B----------15p12-------------------15p12-------------------
G----------------------------------------------------------
D----------------------------------------------------------
A----------------------------------------------------------
E----------------------------------------------------------

E------12---------14~----------12---------15~--------------
B----------15p12-------------------15p12-------------------
G----------------------------------------------------------
D----------------------------------------------------------
A----------------------------------------------------------
E----------------------------------------------------------


E-----12---------16-----------12----------15---------------
B----------15p12-------------------15p12-------------------
G----------------------------------------------------------
D----------------------------------------------------------
A----------------------------------------------------------
E----------------------------------------------------------

E------12---------14~----------12---------15~--------------
B----------15p12-------------------15p12-------------------
G----------------------------------------------------------
D----------------------------------------------------------
A----------------------------------------------------------
E----------------------------------------------------------


E------12---------16~----------12---------15~--------------
B----------15p12-------------------15p12-------------------
G----------------------------------------------------------
D----------------------------------------------------------
A----------------------------------------------------------
E----------------------------------------------------------


E------12---------14~--------12--------------12------------
B----------15p12-----------------15p12--15b------15p12-----
G----------------------------------------------------------
D----------------------------------------------------------
A----------------------------------------------------------
E----------------------------------------------------------




E----------------------------------------------------------
B---------12-----------------------------------------------
G-----14------14brp12------14------12~---------------------
D----------------------14------14--------------------------
A----------------------------------------------------------
E----------------------------------------------------------


E----------------------------------------------------------
B----------------------------------------------------------
G----------------------------------------------------------
D------14-12-----------------------------------------------
A-------------14p12/10--12brp10------12------10b~----------
E--------------------------------12------12----------------


E----------4-------3-------2-----------0-------------------
B----------------------------------------------------------
G------/4-----4/3-----3/2-----2---0h1----------------------
D----------------------------------------------------------
A----------------------------------------------------------
E----------------------------------------------------------

That's it.




------=_NextPart_000_7456_61e7_75d5
Content-Type: text/plain; name="rocket queen.txt"; format=flowed
Content-Transfer-Encoding: 8bit
Content-Disposition: attachment; filename="rocket queen.txt"

Song : Rocket Queen (extended solo)
Artist : Guns and Roses
Album : Tokyo Use your illusion II TOUR 1992
Tabbed by : Frederic Briere
Ilie_cobra@hotmail.com

h   - hammer on
p   - pull off
b   - bend string up
bb  - 1 1/2 tone bend
H   - hold bend
r   - release bend
/   - slides
~   - vibrato
x   - play 'note' with heavy damping
(*) - harmonics


Here are three extended solos Slash played in the 1992
Use Your Illusion Tour in Tokyo (Rocket Queen, Move to the
city, Knocking on Heaven's door). This is from the videotape
Use Your Illusion II, these solos are simply amazing.
I finally decided to tab them and share them. Hope you enjoy !
(If the guy is actually improvising, he is an absolute genius)




E----------------------------------------------------------
B--------------------------------4b------------------------
G------------------------2h3-----4b----2h4p2~--------------
D----2-4~-----------2-4------4-----------------------------
A----------------------------------------------------------
E----------------------------------------------------------


E----------------------------------------------------------
B----------------------------------------------------------
G----------2h3-----------2h3-2h3---------------------------
D------2-4-----4--2-2-4------------------------------------
A----------------------------------------------------------
E----------------------------------------------------------

E----------------------------------------------------------
B----------------------------------------------------------
G----------2h3-----------2h3-2h3---------------------------
D------2-4-----4--2-2-4------------------------------------
A----------------------------------------------------------
E----------------------------------------------------------

E----------------------------------------------------------
B-----------------------------2-2--------------------------
G----------2h3-----------2h3-------------------------------
D------2-4-----4--2-2-4------------------------------------
A----------------------------------------------------------
E----------------------------------------------------------

E----------------------------------------------------------
B----------------------------------------------------------
G----------2h3-----------2h3-2h3---------------------------
D------2-4-----4--2-2-4------------------------------------
A----------------------------------------------------------
E----------------------------------------------------------


E----------------------------------------------------------
B--------2---2------------------5p4p2-----2----------------
G----4b----4---2----------------------4p2---2--------------
D-----------------4p2-------------------------4p2----------
A----------------------------------------------------------
E----------------------------------------------------------

E----------------------------------------------------------
B----5p4p2-------2-----------5/7-7-7~----------------------
G-----------4p2----2---------------------------------------
D---------------------4p2----------------------------------
A----------------------------------------------------------
E----------------------------------------------------------

E----------------------------------------------------------
B-----------9h10-------------------------------------------
G------9-11------11-9-11-11p9/6--9-9p6/4--6-6p4/2-4--------
D----------------------------------------------------------
A----------------------------------------------------------
E----------------------------------------------------------

E----------------------------------------------------------
B----------------------2~----------------------------------
G-----4brp2--4p2-------2~----------------------------------
D-----------------4p2--------------------------------------
A----------------------------------------------------------
E----------------------------------------------------------


E----------------------------------------------------------
B--------5----7--7p5/7---10-10p7/5---7-7p5-----------------
G----/6----6-----------------------------------------------
D----------------------------------------------------------
A----------------------------------------------------------
E----------------------------------------------------------

E----------------------------------------------------------
B--------5----7--7p5/7---10-10p7/5---7-7p5-----------------
G----/6----6-----------------------------------------------
D----------------------------------------------------------
A----------------------------------------------------------
E----------------------------------------------------------



E---------------------------------------------------10-10--
B-------5----7-7p5/7---10-10p7/10---12-12p10---12b---------
G----/6---6------------------------------------------------
D----------------------------------------------------------
A----------------------------------------------------------
E----------------------------------------------------------


E-------------------9h12p9----------9----------------------
B-----12rp10-----------------10h12-------------------------
G------------(11)------------------------------------------
D----------------------------------------------------------
A----------------------------------------------------------
E----------------------------------------------------------

E----------------------------------------------------------
B-----------10h11-------------10h11-10h11------10h11-------
G-----9-11---------11-9-9-11--------------9-11--------11---
D----------------------------------------------------------
A----------------------------------------------------------
E----------------------------------------------------------


E----------------------------------------------------------
B-----9b-9b------------------------------------------------
G------------11p9-----9------------------------------------
D-----------------11-----11p10p9/7-9p7------7-7------------
A--------------------------------------9p7-------9p7-------
E-----------------------------------------------------9----

E--------------------------------------------------14------
B-------------------14-16-14------14~-------14---------14--
G-------------------14-16-14------14~----16----16b---------
D-----------14----------------16---------------------------
A------/16------16-----------------------------------------
E----------------------------------------------------------

E----------14----------------------------------------------
B-----17b------17--14--17------14-------14-14--------------
G--------------------------16------16b---------16br-14-----
D------------------------------------------------------16--
A----------------------------------------------------------
E----------------------------------------------------------


E----------------------------------------------17b---------
B-------------------------------17b---17brp14--------------
G-----16-14~-----16p14-----------------------(16)----------
D-----------------------16p14------------------------------
A----------------------------------------------------------
E----------------------------------------------------------

E----17b-17b-17b-------------------------------------------
B----------------------------------------------------------
G----------------------------------------------------------
D----------------------------------------------------------
A----------------------------------------------------------
E----------------------------------------------------------










E----------------------------------------------------------
B----------------------------------------------------------
G----------------------------------------------------------
D---------2h3------------------2-3-------------------------
A----2-4-------4----------2-4------------------------------
E----------------0-0-2-4-----------------------------------

E----------------------------------------------------------
B----------------------------------------------------------
G----------------------------------------------------------
D---------2h3------------------2-3-------------------------
A----2-4-------4----------2-4------------------------------
E----------------0-0-2-4-----------------------------------

E----------------------------------------------------------
B----------------------------------------------------------
G----------------------------------------------------------
D---------2h3------------------2-3-------------------------
A----2-4-------4----------2-4------------------------------
E----------------0-0-2-4-----------------------------------

E----------------------------------------------------------
B----------------------------------------------------------
G----------------------------------------------------------
D---------2h3------------------2-3-------------------------
A----2-4-------4----------2-4------------------------------
E----------------0-0-2-4-----------------------------------


That's it.
     
Добавлено: 08.07.2013
Другие материалы по этой песне:
  • Аккорды и текст

Страница создана 08.07.2013
http://primanota.ru/guns-n-roses/tokyo-use-your-illusion-solos-chords.htm
Привет, Гость.
Предлагаем пройти революционный курс по гитаре.
Подарок от PrimaNota.Ru, забирай!