PrimaNota.ru - самый крупный в мире бесплатный архив песенных текстов, аккордов, табулатур и нот


Guns N Roses - Wild Horses Live - таба, видео

Регистрация Запомнить меня
Войти через:  Facebook Google Twitter Vk Yandex Mail.ru

Guns N Roses - Wild Horses Live - таба, видео

Печатать
Просмотров: 147
Уроки эстрадного вокала в Санкт-Петербурге
"Wild Horses"
Written by Mick Jagger and
Keith Richards
Originally Recorded by The Rolling Stones

              ** Guns n' Roses **
        **Wild Horses - Live in Tokyo**

This is Slash's version of 'Wild Horses' as played at
the Tokyo concert in 1992 origionally written by The
Rolling Stones.

Chords Used:

(G)     (320033)
(Am)    (x02210)
(Bm)    (xx4432)
(C)     (x32010)
(F)     (xx3211)
(D)     (xx0232)

G                       Am                           G
------------------------------10-10-10--10-10-10\8-8-7~-|
------------------------------10-10-10--10-10-10\8-8-8~-|
-----------------------------------------------------7~-|
--------------------------------------------------------|
--------------------------------------------------------|
--------------------------------------------------------|

        Am                                    G
--------------10-10-10--10-10-10-10-10-10\8-8-7~-------|
--------------10-10-10--10-10-10-10-10-10\8-8-8~-------|
----------------------------------------------7~-------|
-------------------------------------------------------|
-------------------------------------------------------|
-------------------------------------------------------|

                  Bm                         G
---------------------------10--------------------------|
-------10fb--8---10fb---------10fb--8---8h10-8~~-------|
---------------9----------------------9----------------|
-------------------------------------------------------|
-------------------------------------------------------|
-------------------------------------------------------|

                 Bm                     G
-------------10-----------10---------------------------|
----10b--8------10b----------10b--8---10/12~~----------|
-----------9------------------------9------------------|
-------------------------------------------------------|
-------------------------------------------------------|
-------------------------------------------------------|

                     Am                         C
---10------10-------------------8p7-8p7-8p7------------|
-------10b-----10b---10~~-------------------8----------|
----------------------------------------------7h9~~----|
-------------------------------------------------------|
-------------------------------------------------------|
-------------------------------------------------------|

                              G                      D
-------------------------------------------------------|
----------8--10fb--8---10/12-12~~---13p12-13p12-13--12-|
------7h9------------9---------------------------------|
--7h9--------------------------------------------------|
-------------------------------------------------------|
-------------------------------------------------------|

                     Bm               G
------------------------------15-----------------------|
--12\10-10-10~~-----17fb-17fb----15b-15~~--13h15p13----|
---------------------------------------------------14b-|
-------------------------------------------------------|
-------------------------------------------------------|
-------------------------------------------------------|

                     Bm
-------------------------------------------------------|
--------------------15b---------------------15---------|
-12h14-12----12~~---14b-14b--14b-14b--14b-14b--14b-14b-|
----------14-------------------------------------------|
-------------------------------------------------------|
-------------------------------------------------------|

         G                                      Am
-----------------------------------15-----15-----------|
--------------------------------------15b----15rb15b---|
--12-----12~-12----12-14-12-12~~-----------------------|
------14--------14-------------------------------------|
-------------------------------------------------------|
-------------------------------------------------------|

                        C
-------------------------------------------------------|
-15rb--13p12-13p12---------------------12-15-----12----|
-------------------12----------12-14b--------14b-------|
----------------------12h14~~--------------------------|
-------------------------------------------------------|
-------------------------------------------------------|

                  G
--------------------------------------------------------|
-12------------------15--15-----15--15-15---------------|
----14p12------14/16---16--16-16--16----16\14-14-12-14~-|
----------14--------------------------------------------|
--------------------------------------------------------|
--------------------------------------------------------|

  D                                 Am
-------------------------------------------------------|
-------------------------------15--15------------------|
-14~~-------------12h14--14/16---16--16-16-14-14~~-----|
------------12h14--------------------------------------|
------13h14--------------------------------------------|
-------------------------------------------------------|

                                 C
-------------------------------------------------------|
------17-17-17-15--15\13-13\12-12\10-10\8--8h10-10-----|
--14---------------------------------------------------|
-------------------------------------------------------|
-------------------------------------------------------|
-------------------------------------------------------|

                      G                         F
-----10----------10b-10-8------------8------------------|
10/12--12\10-10-8---------10--8h10-10--10-8-8-10-8-10~~-|
-------------------------------------------9------------|
--------------------------------------------------------|
--------------------------------------------------------|
--------------------------------------------------------|
                                        Couldn't drag

           C                                         Am
-----10-------------------------------------------------|
-8h10---10b--8h10-8-8~~-3h5-3h5-3h5-3h5-3h5-3h5-3h5-3h5-|
--------------------------------------------------------|
--------------------------------------------------------|
--------------------------------------------------------|
--------------------------------------------------------|
me away

                   C
-----3-5-5/7~------7-8--10-8-7-10-8-7-10-8-7--12-10-8--|
-3-5---------------------------------------------------|
-------------------------------------------------------|
-------------------------------------------------------|
-------------------------------------------------------|
-------------------------------------------------------|
        Wild, wild horses
           G                    F            C
-------------------------------------------------------|
-12-10--8-12-10-8-8-7-8~-8-7-7h9p7-5-7-5-3-5-3---------|
-----------------------------------------------5-4-5~~-|
-------------------------------------------------------|
-------------------------------------------------------|
-------------------------------------------------------|
                        Couldn't drag me away

Tabbed by carlos cruz. email saoulhudson@latinmail.com
Добавлено: 27.07.2013
Другие материалы по этой песне:
  • Аккорды и текст

Страница создана 27.07.2013
http://primanota.ru/guns-n-roses/wild-horses-live-chords.htm
Привет, Гость.
Предлагаем пройти революционный курс по гитаре.
Подарок от PrimaNota.Ru, забирай!