PrimaNota.ru - самый крупный в мире бесплатный архив песенных текстов, аккордов, табулатур и нот


Guns N Roses - Nightrain easy - таба, видео

Регистрация Запомнить меня
Войти через:  Facebook Google Twitter Vk Yandex Mail.ru

Guns N Roses - Nightrain easy - таба, видео

Печатать
Просмотров: 96




This is a easy way to play their classic intro to nightrain.
It is played around D7 

--3-3-2-1-2-1-0-0-0-------------------------------
--------------------3-1-3-1-3-3-1-0-1-0-1-0-------
--------------------------------------------2-0-2-
--------------------------------------------------
--------------------------------------------------
--------------------------------------------------

Loaded...       Flying...   Spinning...
--3-3-2-1-2-1-0-0-0-------------------------------
--------------------3-1-3-1-3-3-1-0-1-0-1-0-------
--------------------------------------------2-0-2-
--------------------------------------------------
--------------------------------------------------
--------------------------------------------------

Listen to track for timing and enjoy  

Tab By Lewis Daniels





Добавлено: 27.02.2014
Другие материалы по этой песне:
  • Аккорды и текст

Страница создана 27.02.2014
http://primanota.ru/guns-n-roses/nightrain-easy-chords.htm
Привет, Гость.
Предлагаем пройти революционный курс по гитаре.
Подарок от PrimaNota.Ru, забирай!